Song name
# A B C D E F G H I J K L M N O P Q R S T U V W X Y Z

Arctic Monkeys - My Propeller tab

Arctic Monkeys
My Propeller
Joe Morgan

I believe this is how they create that deep but trebly sound in the intro -
by using standard chords and power chords:

Guitar 1
e|----------------------3---|-0-0-0-3-0-0-0-0-|-0-0-0-3-----------|
B|----------------------0---|-1-1-1-0-1-1-1-1-|-1-1-1-0-----------|
G|----------------------0---|-0-0-0-0-2-2-2-2-|-0-0-0-0-----------|
D|-2-2-2-2--2-2-2-2--2--0---|-2-2-2-0-2-2-2-2-|-2-2-2-0-----------|
A|-2-2-2-2--2-2-2-2--2--2---|-3-3-3-2-0-0-0-0-|-3-3-3-2-0-2-0-----|
E|-0-0-0-0--0-0-0-0--0--3---|-------3---------|-------3-------3-2-|

Guitar 2
e|--------------------------|-----------------|-------------------|
B|--------------------------|-----------------|-------------------|
G|--------------------------|-----------------|-------------------|
D|-2-2-2-2--2-2-2-2--2--5---|-10--10--7---7---|-10--10------------|
A|-2-2-2-2--2-2-2-2--2--5---|-10--10--7---7---|-10--10------------|
E|-0-0-0-0--0-0-0-0--0--3---|-8---8---5---5---|-8---8---5-7-5-3-2-|
Tap to rate this tab
 
# A B C D E F G H I J K L M N O P Q R S T U V W X Y Z