Song name
# A B C D E F G H I J K L M N O P Q R S T U V W X Y Z

Arctic Monkeys - Bad Thing tab

The Bad Thing
Arctic Monkeys
Joe Morgan

   Em                  B                   A                   G         F#
e|-7--7--7-7-7--7--7-|-7--7--7-7-7--7--7-|-5--5--5-5-5--5--5-|-3--3--3-3-2--
B|-8--8--8-8-8--8--8-|-7--7--7-7-7--7--7-|-5--5--5-5-5--5--5-|-3--3--3-3-2--
G|-9--9--9-9-9--9--9-|-8--8--8-8-8--8--8-|-6--6--6-6-6--6--6-|-4--4--4-4-3--
D|-9--9--9-9-9--9--9-|-9--9--9-9-9--9--9-|-7--7--7-7-7--7--7-|-5--5--5-5-4--
A|-7--7--7-7-7--7--7-|-9--9--9-9-9--9--9-|-7--7--7-7-7--7--7-|-5--5--5-5-4--
E|-------------------|-7--7--7-7-7--7--7-|-5--5--5-5-5--5--5-|-3--3--3-3-2--

-2--2-|
-2--2-|
-3--3-|
-4--4-|
-4--4-|
-2--2-|

e|------------------|------------------|-----------|
B|------------------|------------------|-----------|
G|------------------|------------------|-----------|
D|------------------|------------------|-----------|
A|-5------3--0------|-5------3--0------|-0-2-3-0---|
E|------------------|------------------|-----------|

e|-5--5--5-5--5-|-5--5--5-5--5-|
B|-6--6--6-6--6-|-5--5--5-5--5-|
G|-7--7--7-7--7-|-6--6--6-6--6-|
D|-7--7--7-7--7-|-7--7--7-7--7-|
A|-5--5--5-5--5-|-7--7--7-7--7-|
E|--------------|-5--5--5-5--5-|

I can't remember the solo atm, but I will add one if someone requests one in the comments section.
Tap to rate this tab
 
# A B C D E F G H I J K L M N O P Q R S T U V W X Y Z