Song name
# A B C D E F G H I J K L M N O P Q R S T U V W X Y Z

Arctic Monkeys - Dont Sit Down Cause Ive Moved Your Chair tab

Arctic Monkeys - Don't Sit Down 'Cause I've Moved Your Chair.
Tabbed by Jack Sharp.

Well I have yet to find a tab for this new release, yet I only fear someone is already
verifying a submitted one as I speak. Anyhows this is the closest I came by ear. An
'Arctic Monkeys song in Drop D?' I hear you cry.
Well according to this fan, yes. Don't forget to rate,correct and enjoy.
Note: Some may say there isn't a need for a lead in some parts but owell.
Tuning: Drop D


0:00 - 00:08
Intro x2 (Alex - Lead):
e|-------------------------------------------------------------------------|
B|-------------------------------------------------------------------------|
G|-------------------------------------------------------------------------|
D|-0--0-2-0--0-2-0--0-2-0-3-2-1--------------------------------------------|
A|-------------------------------------------------------------------------|
D|-------------------------------------------------------------------------|
0:08 - 00:39
1st Verse x8 (Alex - Lead)  :
e|-------------------------------------------------------------------------|
B|-------------------------------------------------------------------------|
G|-------------------------------------------------------------------------|
D|-0--0-2-0--0-2-0--0-2-0-3-2-1--------------------------------------------|
A|-------------------------------------------------------------------------|
D|-------------------------------------------------------------------------|

Main Riff Break x4:
(The brackets are optional due to personal preference, I think personally it sounds
better without them.)
0:40 - 0:56
e|-------------------------------------------------------------------------|
B|-------------------------------------------------------------------------|
G|-------------------------------------------------------------------------|
D|(0)(0)2(0)(0)2(0)(0)2(0)3-2-1--------------------------------------------|
A|(0)(0)2(0)(0)2(0)(0)2(0)3-2-1--------------------------------------------|
D|-0--0-2-0--0-2-0--0-2-0-3-2-1--------------------------------------------|

0:56 - 1:28
2nd Verse x8 (Rythm):
(On the 8th time just finish on the 3's, leave out the run down 2,1. i.e)
e|-------------------------------------------------------------------------|
B|----------------------------------------------end on --------------------|
G|-------------------------------------------------------------------------|
D|(0)(0)2(0)(0)2(0)(0)2(0)3-2-1--------------------------3|----------------|
A|(0)(0)2(0)(0)2(0)(0)2(0)3-2-1--------------------------3|----------------|
D|-0--0-2-0--0-2-0--0-2-0-3-2-1--------------------------3|----------------|

1:28 - 1:43
Chorus x2 (again, end on 3 (F) )
(Rythm)
e|-------------------------------------------------------------------------|
B|-------------------------------------------------------------------------|
G|-------------------------------------------------------------------------|
D|-3-3-3-3-3-3-3-3-8-8-8-8-8-8-8-8-0-0-0--0-0-0--0-0-0--0-0-0--------------|
A|-3-3-3-3-3-3-3-3-8-8-8-8-8-8-8-8-0-0-0--0-0-0--0-0-0--0-0-0--------------|
D|-3-3-3-3-3-3-3-3-8-8-8-8-8-8-8-8-0-0-0--0-0-0--0-0-0--0-0-0--------------|
(Lead)
e|-------------------------------------------------------------------------|
B|-------------------------------------------------------------------------|
G|-------------------------------------------------------------------------|
D|---------------------------------0--0-2-0--0-2-0--0-2-0--0-2-------------|
A|-------------------------------------------------------------------------|
D|-3-3-3-3-3-3-3-3-8-8-8-8-8-8-8-8-----------------------------------------|

1:43 - 2:16
3rd Verse (Just Rythm):
(on the vibrato (7) you can also do this technique known as 'voilin'ing. Turn and make
sure your volume knob is turned down to 0 almost and as you play the note slowly turn it
up whilst keeping the note sustained adding, well an effect that sounds like a violin. 
Please note i'm terrible at explaining things.)

e|-------------------------------------------------------------------------|
B|-------------------------------------------------------------------------|
G|--------------------------7v~--------------------------------------------|
D|--11b(12/13)r11--------------------0--------0-----------11b(12/13)r11----|
A|-------------------------------------------------------------------------|
D|--------------------------------------------0(let-ring)---------------0--|

2:16 - 2:43
2nd Chorus:
(Rythm) x4
e|-------------------------------------------------------------------------|
B|-------------------------------------------------------------------------|
G|-------------------------------------------------------------------------|
D|-3-3-3-3-3-3-3-3-8-8-8-8-8-8-8-8-0-0-0--0-0-0--0-0-0--0-0-0--------------|
A|-3-3-3-3-3-3-3-3-8-8-8-8-8-8-8-8-0-0-0--0-0-0--0-0-0--0-0-0--------------|
D|-3-3-3-3-3-3-3-3-8-8-8-8-8-8-8-8-0-0-0--0-0-0--0-0-0--0-0-0--------------|
(Lead)
e|-------------------------------------------------------------------------|
B|-------------------------------------------------------------------------|
G|-------------------------------------------------------------------------|
D|---------------------------------0--0-2-0--0-2-0--0-2-0--0-2-------------|
A|-------------------------------------------------------------------------|
D|-3-3-3-3-3-3-3-3-8-8-8-8-8-8-8-8-----------------------------------------|

e|-------------------------------------------------------------------------|
B|-------------------------------------------------------------------------|
G|-------------------------------------------------------------------------|
D|---------------------------------0---7b~--7--7-7--15-15------------------|
A|-------------------------------------------------------------------------|
D|-3-3-3-3-3-3-3-3-8-8-8-8-8-8-8-8-----------------------------------------|


e|-------------------------------------------------------------------------|
B|-------------------------------------------------------------------------|
G|-------------------------------------------------------------------------|
D|-7--15-15--15-15-7-15-15--15-15--7--15h17p15h17p-15-h-17-p-15-h-17-p-15--|
A|-------------------------------------------------------------------------|
D|-------------------------------------------------------------------------|
(this may look wrong and confusing but just listen to the song)
e|-------------------------------------------------------------------------|
B|-------------------------------------------------------------------------|
G|-------------------------------------------------------------------------|
D|h17--18-17-15-12---------------------------------------------------------|
A|-------------------------------------------------------------------------|
D|-------------------------------------------------------------------------|

e|-------------------------------------------------------------------------|
B|-----------------------------------------13b~----------------------------|
G|-------------------------------------------------------------------------|
D|----------12-12b--15-----10h12p10-10-12----------------------------------|
A|-12-12-15------------12--------------------------------------------------|
D|-------------------------------------------------------------------------|

2:43 - 3:04
Outro(not to keen on this for Rythm):
(Rythm)x4
e|-------------------------------------------------------------------------|
B|-------------------------------------------------------------------------|
G|-------------------------------------------------------------------------|
D|(0)(0)2(0)(0)2(0)(0)2(0)3-2-1--------------------------------------------|
A|(0)(0)2(0)(0)2(0)(0)2(0)3-2-1--------------------------------------------|
D|-0--0-2-0--0-2-0--0-2-0-3-2-1--------------------------------------------|

(Lead)
e|-------------------------------------------------------------------------|
B|-------------------------------------------------------------------------|
G|-------------------------------------------------------------------------|
D|-12--15b-12--15b-12--15b-12--15b-12--15b-12--15b-12--15b-12--15b---------|
A|-------------------------------------------------------------------------|
D|-------------------------------------------------------------------------|

End.
Tap to rate this tab
 
# A B C D E F G H I J K L M N O P Q R S T U V W X Y Z