Song name
# A B C D E F G H I J K L M N O P Q R S T U V W X Y Z

Arctic Monkeys - Dont Sit Down Cause Ive Moved Your Chair tab

Email: 123nebojsa123@gmail.com
Tuning:  DADGBe

Intro   0:00  0:40
e ---------------------------------------|
B ---------------------------------------|
G -2---2-2-2---2-2-2---2-2-2------------| playing G string is optional
D --0---0-2-0---0-2-0---0-2-0---3-2-1-0--|
A ---------------------------------------|
D ---------------------------------------|

verse  0:40  1:27
e ---------------------------------------|
B ---------------------------------------|
G ---------------------------------------|
D ---------------------------------------|
A --0---0-2-0---0-2-0---0-2-0---3-2-1-0--|
D --0---0-2-0---0-2-0---0-2-0---3-2-1-0--|


Chorus 1:28  1:43
e -----------------------------------------------------|
B -----------------------------------------------------|
G -----------------------------------------------------|
D --3--3-3--3-3---8--8-8--8-8--------------------------|
A -3--3-3--3-3---8--8-8--8-8--2--2-2-2--2-2-2--2-2-2--|
D --3--3-3--3-3---8--8-8--8-8--0--0-0-0--0-0-0--0-0-0--|


verse 2 1:44  2:15
e --------------------------------------|
B --------------------------------------|
G --13b15r13--7b9r7---------------------|  start with low volume,strike
D --------------------------------------|  the note and turn volume up
A --------------------------16b18r16----|
D -------------------1b2r1------------0-|


Chorus   2:16  2:43
guitar  1
e -----------------------------------------------------|
B -----------------------------------------------------|
G -----------------------------------------------------|
D --3--3-3--3-3---8--8-8--8-8--------------------------|
A -3--3-3--3-3---8--8-8--8-8--2--2-2-2--2-2-2--2-2-2--|
D --3--3-3--3-3---8--8-8--8-8--0--0-0-0--0-0-0--0-0-0--|

guitar 2
2:30  2:43
e --------------------------------------------------|
B --------------------------------------------------|
G --------------------------------------------------|
D 7-7/15-15-----7/15-15--15-15-----7/15-15--15-15--|
A --------------------------------------------------|
D --------------------------------------------------|


e -----------------------------------------------------------------|
B -----------------------------------------------------------------|
G -----------------------------------------------------------------|
D ---7/15h17p15h17---15h17p15h17---15h17p15h17-----17b19r17-15-----|
A -------------------------------------------------------------17--|
D -----------------------------------------------------------------|



e --------------------------------------8b10--|
B --------3b5r3--------3p1---1-3--------------|
G --2-2-5----------2-5-----2------------------|
D --------------------------------------------|
A --------------------------------------------|
D --------------------------------------------|


Outro  2:44  2:58
guitar  1
e -----------------|
B -----------------|
G -----------------|
D -----------------|  (till the end)
A -0-0-0--2-2-2--|
D --0--0-0--2-2-2--|

guitar 2
e --------------|
B --------------|
G --------------|
D --1215b17----|  x4
A --------------|
D --------------|

e --------------|
B --------------|
G -----16b18----|
D --12---------|  x4 (till the end)
A --------------|
D --------------|
Tap to rate this tab
 
# A B C D E F G H I J K L M N O P Q R S T U V W X Y Z