Arctic Monkeys - Dont Sit Down Cause Ive Moved Your Chair tab

Arctic Monkeys - Don't Sit Down 'Cause I've Moved Your Chair
------------------------------------------------------------

Tabbed by: PropaDerbyLad
Email: rabid_monkey28@hotmail.com 

Comments and corrections are welcome and email me if you have any questions or owt...

Dropped D Tuning (DADGBe)

Intro:
Guitar 1 - 

e------------------------------------------|
B------------------------------------------|
G------2------2------2----2-2-2-2--(x9)----|
D--0-0-2-0--0-2-0--0-2-0--3-2-1-0----------|
A------------------------------------------|
D------------------------------------------|


Verse 1 (Heavy):
Guitar 1 - Continues intro part (x11)
Guitar 2 - 
 
e------------------------------------------------------------------|
B------------------------------------------------------------------|
G------------------------------------------------------------------|
D------------------------------------------------------------------|
A-0-0---0--0---0--0---0--------0----------0-0---0--0---0--0---0----|
D-0-0-2-0--0-2-0--0-2-0--3-2-1-0--(x11)---0-0-2-0--0-2-0--0-2-0-3--|


Chorus:
Guitar 1  -

e------------------------------------------------------------------|
B------------------------------------------------------------------|
G-10------3-3333-----------2-------2------2------2-----------------|
D-10-(x5)-3-3333-(x5)--0-0-2-0-0-0-2-0--0-2-0--0-2-0---------------|
A-8-------1-1111---------------------------------------------------|
D------------------------------------------------------------------|

Guitar 2 - 

e------------------------------------------------------------------|
B------------------------------------------------------------------|
G---------3-3333--7------------------------------------------------|
D-3-3333--3-3333--7-(x16)------------------------------------------|
A-3-3333--1-1111--5------------------------------------------------|
D-3-3333----------0------------------------------------------------|

Repeat twice but on the second time, end on -

e------------|
B------------|
G------------|	  Guitar 1
D------------|
A--8---------|
D------------|

e------------|
B------------|
G--10--------|   Guitar 2
D--10--------|
A--8---------|
D------------|


Verse 2: 
Only Bass

But also some feedback from Guitar 2 based around - 

e--------------|------------|
B--------------|------------|
G--------------|--4~~~------|
D--12b~~~------|--x~~~------|
A--------------|--5~~~------|
D--------------|------------|
      

Chorus: Same as before...


Solo:
Guitar 2 - 

e--------------------------------------------------------------------|
B--------------------------------------------------------------------|
G--------------------------------------------------------------------|
D-2~~~--2/10-10--2/1010-1010-(x2)--2-10-10/12\10/12--10-10/14\10/12--|
A--------------------------------------------------------------------|
D--------------------------------------------------------------------|

e-----------------------------------------------|
B-----------------------------------------------|
G---------------------------3b-1h3h1------13b---|
D-10\7/10/12/14\12\10--2-2-5----------5-2-------|
A-----------------------------------------------|
D-----------------------------------------------|

Outro:
Guitar 1 - 
e---------------------------------------------|
B---------------------------------------------|
G------2------2------2----2-2-2-2--(x8)-------|
D--0-0-2-0--0-2-0--0-2-0--3-2-1-0-------------|
A---------------------------------------------|
D---------------------------------------------|

Guitar 2 -

e---------------------|
B---------------------|
G--7b--10b-(x4)--7b---|
D---------------------|
A---------------------|
D---------------------|

Both Guitars -

e--------------------------------|
B--------------------------------|
G--10b--7b-10b--7b-10b--7b-10b---|
D--------------------------------|
A--------------------------------|
D--------------------------------|

Great song, great band...can't wait for the album!


| /  slide up
| \  slide down
| h  hammer-on
| p  pull-off
| ~  vibrato
| +  harmonic
| x  Mute note
=============================================================================
Tap to rate this tab
 
# A B C D E F G H I J K L M N O P Q R S T U V W X Y Z