Song name
# A B C D E F G H I J K L M N O P Q R S T U V W X Y Z

Arctic Monkeys - The Blond-o-sonic Shimmer Trap tab

Arctic Monkeys - The Blond-O-Sonic Shimmer Trap

Tabbed By Richard
----------------------------------------------------------------------------

  Intro/Verse   
e:------------------------------------------------------------|     
b:------------------------------------------------------------|     
g:----7-------7-------7-------7--33-3--3333-3--3333-3--3333-3-|        
D:----x-------x-------x-------x--33-3--3333-3--3333-3--3333-3-|  X6
A:-55-5--5555-5--5555-5--5555-5--11-1--1111-1--1111-1--1111-1-|         
D:-00-0--0000-0--0000-0--0000-0-------------------------------| 

  Pre-Chorus (Continued on from the end of the Verse)
e:----------|     
b:----------|     
g:-333-3333-|        
D:-333-3333-|
A:-111-1111-|         
D:----------|

  Chorus
e:-------------------------------------------------------------------|
b:-------------------------------------------------------------------|
g:-----------------------777-7777------------------------------------|
D:-5-5-555--8-88-888-88--777-7777--3-33-333-33--5-5-555--8-88-888-88-|
A:-5-5-555--8-88-888-88--555-5555--3-33-333-33--5-5-555--8-88-888-88-| 
D:-5-5-555--8-88-888-88------------3-33-333-33--5-5-555--8-88-888-88-|

e:-------------------------------------------------------------|
b:-------------------------------------------------------------|
g:----7-------7-------7-------7-----------------------777-7777-|
D:----x-------x-------x-------x--5-5-555-8-88-888-88--777-7777-|
A:-55-5--5555-5--5555-5--5555-5--5-5-555-8-88-888-88--555-5555-|
D:-00-0--0000-0--0000-0--0000-0--5-5-555-8-88-888-88-----------|

e:-------------------------------|
b:-------------------------------|
g:-------------------------------|
D:-3-33-333-33--5-5-555--8-7-5-8-|
A:-3-33-333-33--5-5-555--8-7-5-8-|
D:-3-33-333-33--5-5-555--8-7-5-8-|


  - Verse  X4


  - Pre-Chorus  X1
              
                             e:---------------------|
                             b:---------------------|
                             g:---------------------|
  - Chorus X1 ending with... D:-8-7-5-8-7-5-8-7-5-8-|
                             A:-8-7-5-8-7-5-8-7-5-8-|
                             D:-8-7-5-8-7-5-8-7-5-8-|
        Solo (02:08) begins here^


  - Verse  X5


  - Pre-Chorus  X1

                             e:-----------------------|
                             b:-----------------------|
                             g:---------------------7-|
  - Chorus X1 ending with... D:-8-7-5-8-7-5-8-7-5-8-x-|
                             A:-8-7-5-8-7-5-8-7-5-8-5-|
                             D:-8-7-5-8-7-5-8-7-5-8-0-|


  Solo (02:08-03:25)
e:------------------------------------------------------------------|
b:-11^-10^-8^-11^-10^-8^-11^-10^-8^-11^-----------------------------|
g:--------------------------------------7-----------/10^---7--5/7/5-|
D:------------------------------------------------------------------|
A:------------------------------------------------------------------|
D:------------------------------------------------------------------|

e:-----------------------------------------------------------------|
b:-10^10^10^8h10----10^10^10^8h10----------------------------------|
g:---------------10---------------10----7-------5/7-------5/7-5/10-|
D:-----------------------------------------------------------------|
A:-----------------------------------------------------------------|
D:-----------------------------------------------------------------|

e:--------------------------------------------------------------------|
b:-----------------------------10^10^10^8h10----10^10^10^8h10---------|
g:-5/7-5/10-5/7--------5/7/10----------------10---------------10----7-|
D:--------------------------------------------------------------------|
A:--------------------------------------------------------------------|
D:--------------------------------------------------------------------|

e:--------------------------------------------------------------------|
b:------------------------10/11/13/15/13/10---------------------------|
g:---7p5h7p5h7/10^-7-----------------------------/7-5/10-5/7-5/10-5/7-|
D:--------------------------------------------------------------------|
A:--------------------------------------------------------------------|
D:--------------------------------------------------------------------|

e:--------------------------------------------------------------|
b:---------------10/11/13/15/13/10-/13----11^-10^-8^-11^-10^-8^-|
g:---10^r-7-----------------------------------------------------|
D:--------------------------------------------------------------|
A:--------------------------------------------------------------|
D:--------------------------------------------------------------|

e:----------------------------------------|
b:-11^-10^-8^-11^-------------------------| Almost all the bends (^)
g:----------------7-----------------------| in the solo are 1/4 bends
D:----------------------------------------| or less.
A:-----------------------------------17^r-|
D:----------------------------------------|
Tap to rate this tab
 
# A B C D E F G H I J K L M N O P Q R S T U V W X Y Z