Arctic Monkeys - Idst tab

This Riff goes all the Time

[Riff]

E----------------------------------------------|
B----------------------------------------------|
G----------------------------------------------|
D----------------------------------------------|
A----------------------------------------------|
E-0-00-000-0-3b--00-000-0-3b-------------------|


[Chorus]

E-------------------------------------------------------------|
B-------------------------------------------------------------|
G-------------------------------------------------------------|
D-------------------------------------------------------------|
A-------------------------------------------------------------|
E-3-33-333-3-5-55-555-5--0-00-000-0-3b--00-000-0-3b-----------|


[Solo]

At the Start i dont no how many times he plays the 12 note

E-------------------------------------------------------------|
B-------------------------------------------------------------|
G-------------------------------------------------------------|
D-12-12-12-12-12-12-12-12-12---12--12--12---------------------|
A-------------------------------------------------------------|
E-------------------------------------------------------------|


E-------------------------------------------------------------|
B-------------------------------------------------------------|
G-20b//////19--16-19------------------------------------------|
D-----------------------14--17b18-17b18-17b18--14-12----------|
A-------------------------------------------------------------|
E-------------------------------------------------------------|

E-------------------------------------------------------------|
B-------------------------------------------------------------|
G-------------------------------------------------------------|
D-12-14-17-17b18-17b18-14-12-12-14-17-19-17-19-17-14-12-------|
A-------------------------------------------------------------|
E-------------------------------------------------------------|

E---------------------------------------------------------------------|
B---------------------------------------------------------------------|
G--------------------------20b//////19--16-19-------------------------|
D-14-12-9-7-5--2-5-7-9-17b--------------------2-5-7-9-17b18--14~------|
A---------------------------------------------------------------------|
E---------------------------------------------------------------------|

And at least, comes the chorus.

Enjoy the tab und rate :)
Tap to rate this tab
 
# A B C D E F G H I J K L M N O P Q R S T U V W X Y Z