Arctic Monkeys - Piledriver Waltz tab

This is Just the intro but too many people had it wrong so I had to upload it feel free 
to add and correct.

I will add the rest at some point.

E Major
C# Minor
G# major
A Major


Intro:

e|--0-------7----|
B|--0-------9----|
G|--1---or--9----|
D|--2-------9----|
A|--2-------7----|
E|--0------------|

    E       E


e|--7----7-----|
B|-----8----8--|
G|-------------|
D|-------------|
A|-------------|
E|-------------|

    B G# B G#



Verse:

e|--0-------7------------4---4---5--------------------|
B|--0-------9------------5---4---5--------------------|
G|--1---or--9----then----6---4---6--------------------|
D|--2-------9------------6---6---7--------------------|
A|--2-------7------------4---6---7--------------------|
E|--0------------------------4---5--------------------|

    E       E            C#m G#  A

Chorus:

A F#m C#


e|--5---2---4---------------|
B|--5---2---5---------------|
G|--6---2---6---------------|
D|--7---4---6---------------|
A|--7---4---4---------------|
E|--5---2-------------------|

    A   F#m C#

e|--0-------7------------4---4---5--------------------|
B|--0-------9------------5---4---5--------------------|
G|--1---or--9----then----6---4---6--------------------|
D|--2-------9------------6---6---7--------------------|
A|--2-------7------------4---6---7--------------------|
E|--0------------------------4---5--------------------|

Thanks
Tap to rate this tab
 
# A B C D E F G H I J K L M N O P Q R S T U V W X Y Z