Song name
# A B C D E F G H I J K L M N O P Q R S T U V W X Y Z

Arctic Monkeys - Piledriver Waltz tab

Arctic Monkeys
Piledriver Waltz
Suck it and See - 2011

Intro:

only the second guitar plays

e|-7-7-7-7-7-7-7-7-7-7-7-7-7-7-7-7---|
B|--9-9-9-9-9-9-9-9-9-9-9-9-9-9-9-9--|
G|-----------------------------------|
D|-----------------------------------| 
A|-----------------------------------|
E|-----------------------------------|

Verse:

Guitar 1 chords:
   E     C#      G#       A
e|-0------4-------4-------5---------|
B|-0------4-------4-------5---------|
G|-1------6-------5-------6---------|
D|-2------6-------6-------7---------|  2x
A|-2------4-------6-------7---------|  
E|-0------4-------4-------5---------|
                                     
Guitar 2:           
                                     
e|-7-7-7-7-9-9-9-9-8-8-8-8-9-9-9-9--|
B|--9-9-9-9-9-9-9-9-9-9-9-9-9-9-9-9-|
G|----------------------------------|
D|----------------------------------|  2x
A|----------------------------------|
E|----------------------------------|

Pre chorus:

Guitar 1 chords:

e|-0----0----0--|
B|-0----0----0--|
G|-1----1----1--|
D|-2----2----2--|
A|-2----2----2--|
E|-0----0----0--|

Guitar 2:

e|-7-7-7-7-7-7-7-|
B|--9-9-9-9-9-9--|
G|---------------|
D|---------------|
A|---------------|
E|---------------|

Chorus:

Both guitars:

e|-5--2--4--4--5--2--4--4--5-2-0-4--5-5--2-2--|
B|-5--2--4--4--5--2--4--4--5-2-0-4--5-5--2-2--|
G|-6--2--6--6--6--2--6--6--6-4-1-5--6-6--4-4--|
D|-7--4--6--6--7--4--6--6--7-4-2-6--7-7--4-4--|
A|-7--4--4--4--7--4--4--4--7-2-2-6--7-7--2-2--|
E|-5--2--4--4--5--2--4--4--5-2-0-4--5-5--2-2--|

Verse

Chorus

End "Oh, Piledriveeer..."

Guitar 1 chords:

e|-0-----4-------4---------------5--(-5-4-2-0-)-|
B|-1-----4-------4---------------5--(-5-4-2-0-)-|
G|-1-----6-------5---------------6--(-6-5-2-1-)-|   
D|-2-----6-------6---------------7--(-7-6-4-2-)-|    3x
A|-2-----4-------6---------------7--(-7-6-4-2-)-|
E|-0-----4-------4---------------5--(-5-4-2-0-)-|

Guitar 2:                              

e|-12-14-11--12---------------------------------------|
B|--------------14-16-14-13-14-16-14--14-12-10-9------|
G|-----------------------------------------------11-9-|
D|----------------------------------------------------|    3x
A|----------------------------------------------------|
E|----------------------------------------------------|

Guitar 1 chords:

e|-0----4------4----------------5\\\--|
B|-0----4------4----------------5\\\--|
G|-1----6------5----------------6\\\--|
D|-2----6------6----------------7\\\--|
A|-2----4------6----------------7\\\--|
E|-0----4------4----------------5\\\--|

Guitar 2:

e|-12-14-11--12---------------------------|
B|--------------14-16-14-13-14-16-14\\\\--|
G|----------------------------------------|
D|----------------------------------------|
A|----------------------------------------|
E|----------------------------------------|

Thank you for read!

Vote and coment. thx
Tap to rate this tab
 
# A B C D E F G H I J K L M N O P Q R S T U V W X Y Z