Arctic Monkeys - Thats Where Youre Wrong tab

This is the intro of 'That's Where You're Wrong' and to me it sounds pretty good.

e||---------------------------------------||
B||---------------------------------------||
G||---------------------------------------||
D||---------------------------------------||
A||---11---9---7---9---9---9---5---5------||
E||-0----0---0---0---0---0---7---7--------||

The rest of the song is on E and A

Jamie's part (with a lot reverb)
e||----7------|------9--------|| 
B||----9------|------10-------||
G||----9------|------9--------||
D||-----------|---------------||
A||-----------|---------------||
E||-----------|---------------||

e||----------7-------------------------|| 
B||-9--9--9-----9--7-------------------||
G||-------------------9--9-9-9---------||
D||------------------------------------||
A||------------------------------------||
E||------------------------------------||

e||------------------------------------|| 
B||------------------------------------||
G||----------4-------------------------||
D||-6--6--6-----6--4-------------------||
A||-------------------7--7-7-7---------||
E||------------------------------------||

Solo
e||------------------------------------|| 
B||-12--12--12--9-10-9-----------------||
G||--------------------9--9--9---------||
D||------------------------------------||
A||------------------------------------||
E||------------------------------------||

Sometimes Jamie does a bend on the 5th fret of the G string


I hope you all like it! Good music doesn't have to be difficult!

Harm Pauwels
Tap to rate this tab
 
# A B C D E F G H I J K L M N O P Q R S T U V W X Y Z