Song name
# A B C D E F G H I J K L M N O P Q R S T U V W X Y Z

Arctic Monkeys - Shes Thunderstorms tab

Ite this is one of the skeenest songs off a pretty skeen album. This is how you play it.

Intro:

|---------------------|---------------------|
|-----0---0---0---0---|----4---3---0---3----|
|.--4---4---4---4-----|--5---5---4---5-----.|  x3
|.--------------------|--------------------.|
|---------------------|---------------------|
|---------------------|---------------------|

|---------------------|---------------------|
|----0---0---0---0----|---3---0---3---0-----|
|--4---4---4---4------|-5---5---5---5-------|
|---------------------|---------------------|
|---------------------|---------------------|
|---------------------|---------------------|

At which point Alex comes in with the chords and singing

Chorus:
  G                     Cm
|---------------------|---------------------|
|-----0---0---0---0---|----4---3---0---3----|
|.--4---4---4---4-----|--5---5---4---5-----.| x2
|.--------------------|--------------------.|
|---------------------|---------------------|
|---------------------|---------------------|
                       'She's thunderstorms...'

  Am                    D
|---------------------|---------------------|
|---3---0---3---0-----|---3---0---2---2-----|
|-5---5---5---5-------|-5---5-------0-------| x2
|---------------------|---------------------|
|---------------------|---------------------|
|---------------------|---------------------|
                       'Up against the wall...'

  G                     Cm
|---------------------|---------------------|
|-----0---0---0---0---|----4---3---0---3----|
|.--4---4---4---4-----|--5---5---4---5-----.| x2
|.--------------------|--------------------.|
|---------------------|---------------------|
|---------------------|---------------------|


Verse:
                                               _
  G                     Em                      |
|---------------------|-----------0----------|  |
|---10---12----10---12|---7---7-----0---0----|  |
|-12---12---12---12---|-9---9---9-----0------|  |
|---------------------|----------------------|  |
|---------------------|----------------------|  |
|---------------------|----------------------|  |
          'I've been   feeling foolish...'      x3
 Am                     D                       |
|-0---0---0---0-------|----5---5-7-5---5-----|  |
|---8---8---7---8-----|--7---7-------7-------|  |
|---------------------|----------------------|  |
|---------------------|----------------------|  |
|---------------------|----------------------|  |
|---------------------|----------------------|  |
          '...you should try it'               _|

 Bm                    Em
|---2---2---2---2-----|---2---2---0----------|
|-3---3---3---3-------|-3---3---3---0---0----|
|---------------------|---------------0------|
|---------------------|----------------------|
|---------------------|----------------------|
|---------------------|----------------------|
         '...cheating   heartbeat...'
 Am                     D
|-0---0---0---0-------|----5---5-7-5---5-----|
|---8---8---7---8-----|--7---7-------7-------|
|---------------------|----------------------|
|---------------------|----------------------|
|---------------------|----------------------|
|---------------------|----------------------|
            '...rapid  fire'

Chorus again, more or less same as first time, but they play it twice. Listen to the song.

Verse, but with no guitar. The bass is just the route notes of the chords from the first 
verse if you wanna play that.

Chorus, once.

Bridge:
 Bm                    Cm
|---------------------|----------------------|
|---------------------|----------------------|
|---------------------|----------------------| x2
|---------------------|----------------------|
|---------------------|----------------------|
|---------------------|----------------------|
             'in an    unusual place...'
 Am                     D
|-0---0---0---0-------|----5---5-7-5---5-----|
|---8---8---7---8-----|--7---7-------7-------|
|---------------------|----------------------| x2
|---------------------|----------------------|
|---------------------|----------------------|
|---------------------|----------------------|
                   '...she does what the night does...'

Solo:
 G                     Cm
|---------------------|----------------------|
|---------------------|----------------------|
|------4-5-----8-7-8--|-12-11-12--16-14-16---|
|---------------------|----------------------|
|---------------------|----------------------|
|---------------------|----------------------|

 G                     Cm
|---------------------|----------------------|
|---------------------|----------------------|
|--------------4--5---|--7-8-7---5----7------|
|---------------------|----------------------|
|---------------------|----------------------|
|---------------------|----------------------|

 Am                    D
|---------------------|----------------------|
|---------------------|----------------------|
|---16-16^-16--14-----|---16~~~~~/14---------|
|---------------------|----------------------|
|---------------------|----------------------|
|---------------------|----------------------|

 Am                    D
|---------------------|----------------------|
|---------------------|----------------------|
|---16-16^-16--14-----|--16--14--12--14------|
|---------------------|----------------------|
|---------------------|----------------------|
|---------------------|----------------------|

Chorus one more time, Jamie just bends the G string fret 12 for a while, then messes 
about lower down the same string, anything in the key of G will work.

I can't fault this tab myself, it was mostly my don of a guitar teacher GOGSY DILLON who 
worked it out.

Big up esko rave, shorty smalls and slewdem 109.
Lesbian sex is alright.
Tap to rate this tab
 
# A B C D E F G H I J K L M N O P Q R S T U V W X Y Z