Arctic Monkeys - Thats Where Youre Wrong tab

i do not own this tab i just found it in a AM forum. because of many AM fans want a tab
of jamie's part and they dont find here in UG,
i decided to copy this tab to this website cause its more accessible to find it here
than in other sites.
so here is the copy-paste:

Here's my go, probably not 100%, but sounds close to me. Listen to the song for the
amount of repetitions for each riff:

0:43
e-----------------------|
B-----9999-12-9-7-5-555-|
G-----------------------|
D-----------------------|
A-----------------------|
E-----------------------|

1:11
e----------------------|
B----------------------|
G----------------------|
D-----6666-9-6-4-2-222-|
A----------------------|
E----------------------|
1:25

e------------------------|
B------------------------|
G------------------------|
D-----999999-6-7-6-2-222-|
A------------------------|
E------------------------|

1:32

e----------------------------------|
B----------------------------------|
G----------------------------------|
D-------11b-11b-11b-11b-11b-11b----| (Hold the bend but pick about 6 times, if that 
makes sense)
A-----0-------------------------0--|
E----------------------------------|

1:39
e------------------------|
B------------------------|
G------------------------|
D-----999999-6-7-6-2-222-|
A------------------------|
E------------------------|

1:46

e-----------------------------------|
B-----------------------------------|
G-----------------------------------|
D-------11b-11b-11b-11b-11b-11b-----|
A-----0-------------------------0---|
E-----------------------------------|

2:36

e------------------------------------|
B-----12-12-12-12-12-12-9-10-9\5-555-|
G------------------------------------|
D------------------------------------|
A------------------------------------|
E------------------------------------|

2:50

e------------------------|
B------------------------|
G------------------------|
D-----999999-6-7-6-2-222-|
A------------------------|
E------------------------|

2:57

e----------------------------------------|
B----------------------------------------|
G----------------------------------------|
D-------11b-11b-11b-11b-11b-11b----------|
A-----0------------------------------0---|
E----------------------------------------|

3:04

e-----------------------------------|
B-----12-12-12-12-12-12-9-10-9\5-55-|
G-----------------------------------|
D-----------------------------------|
A-----------------------------------|
E-----------------------------------|

3:18
e-------------------------------|
B-----/9-9-9-9-9-7---7-9-7------|
G-----------------9--------9-99-|
D-------------------------------|
A-------------------------------|
E-------------------------------|

This post has been edited by "Adrian": 09 June 2011 - 04:21 AM
AMUS (arcticmonkeysus.com/forums)
"Adrian" is the real author of this tab. he's a member/user of that forum
Tap to rate this tab
 
# A B C D E F G H I J K L M N O P Q R S T U V W X Y Z