Song name
# A B C D E F G H I J K L M N O P Q R S T U V W X Y Z

Arctic Monkeys - Shes Thunderstorms tab

----------------------------------------------------------------
Arctic Monkeys – She’s Thunderstorms
----------------------------------------------------------------
Tabbed by: Me

So I’m just gonna tab out Alex’s part for the song and make chords for Jamie’s part at 
the very bottom.

Intro:
e|----------------------------------|
B|---0---0---0---0---4---3---0---3--|
G|-4---4---4---4---5---5---5---5----|
D|----------------------------------|x3
A|----------------------------------|
E|----------------------------------|

e|----------------------------------|
B|---0---0---0---0---3---0---3---0--|
G|-4---4---4---4---5---5---5---5----|
D|----------------------------------|
A|----------------------------------|
E|----------------------------------|

Chorus:
e|----------------------------------|
B|---3---0---0---0---3---0---3---0--|
G|-----------------5---5---5---5----|
D|-5---5---5---5--------------------|x2
A|----------------------------------|
E|----------------------------------|

e|----------------------------------|
B|---3---0---3---0---3---0---0---0--|
G|-5---5---5---5---2---2---2---2----|
D|----------------------------------|
A|----------------------------------|
E|----------------------------------|

e|----------------------------------|
B|---3---5---3---0---3---0---0---0--|
G|-5---5---5---5---2---2---2---2----|
D|----------------------------------|
A|----------------------------------|
E|----------------------------------|

e|------------------|
B|---0---0---0---0--|
G|-0---0---0---0----|
D|------------------|repeat till verse
A-------------------|
E|------------------|

Verse:
e|------------------------------------------|
B|----10----12----10----10---8---0---0---0--|
G|-12----12----12----12----9---9---9---9----|
D|------------------------------------------|
A|------------------------------------------|
E|------------------------------------------|

e|------------------------------------------|
B|---8---8---7---8----10----10----10----10--|
G|-9---9---9---9---11----11----11----11-----|
D|------------------------------------------|
A|------------------------------------------|
E|------------------------------------------|

e|------------------------------------------|
B|----10----12----10----10---8---0---0---0--|
G|-12----12----12----12----9---9---9---9----|
D|------------------------------------------|
A|------------------------------------------|
E|------------------------------------------|

e|------------------------------------------|
B|---8---8---7---8----10----12----10----10--|
G|-9---9---9---9---11----11----11----11-----|
D|------------------------------------------|x3
A|------------------------------------------|
E|------------------------------------------|

e|----------------------------------|
B|---7---7---7---7---7---0---0---0--|
G|-7---7---7---7---9---9---9---9----|
D|----------------------------------|
A|----------------------------------|
E|----------------------------------|

e|-------------------------------------------|
B|---8---8---7---8----10----10----10----10---|
G|-9---9---9---9---11----11----11----11------|
D|-------------------------------------------|
A|-------------------------------------------|
E|-------------------------------------------|

Repeat chorus like before but play this before
e|------------------|
B|-4-4-4-4-4-4-4-4--|
G|-5-5-5-5-5-5-5-5--|
D|------------------|
A|------------------|
E|------------------|

Verse 2: When guitar comes in
e|----------------------------------|
B|---7---7---7---7---7---0---0---0--|
G|-7---7---7---7---9---9---9---9----|
D|----------------------------------|
A|----------------------------------|
E|----------------------------------|

e|-------------------------------------------|
B|---8---8---7---8----10----12----10----10---|
G|-9---9---9---9---11----11----11----11------|
D|-------------------------------------------|
A|-------------------------------------------|
E|-------------------------------------------|

Chorus repeats again

“In an unusual place…”
This part Jamie hits the first chord and Turner hits the second
e|------2------3------2------3--|
B|------3------4------3------4--|
G|------4------5------4------5--|
D|------4------5------4------5--|
A|------2------3------2------3--|
E|------------------------------|

e|-0--------2------|
B|-1--------3------|
G|-2--------2-[x6]-|
D|-2-[x6]---0------| x2
A|-0---------------|
E|-----------------|

Solo:
e|---------------------------------|
B|---------------------------------|
G|-4b5--8-7b8--12-11b12--16-14b16--|
D|---------------------------------|
A|---------------------------------|
E|---------------------------------|

e|---------------------------------------|
B|---------------------------------------|
G|-4b5--7/8\7--5--7----------------------|
D|---------------------------------------|
A|---------------------------------------|
E|---------------------------------------|

e|---------------------------------------|
B|---------------------------------------|
G|-/16--16b17r16-14--12--16--14----------|
D|---------------------------------------|
A|---------------------------------------|
E|---------------------------------------|

e|---------------------------------------|
B|---------------------------------------|
G|-/16--16-14--12--16--14--12--14--------|
D|---------------------------------------|
A|---------------------------------------|
E|---------------------------------------|

Chorus 3:
e|---------------------------------------------------|
B|---------------------------------------------------|
G|-12b13r12-----12b13r12----7-8--7--4-2---4-5-4---2--|
D|---------------------------------------------------|
A|---------------------------------------------------|
E|---------------------------------------------------|

e|--------|
B|--------|
G|--------|
D|-5b7r5--| repeat til end, end on a 5
A|--------|
E|--------|


G5

Cm                    G5
She's Thunderstorms,
Cm                  A5
Lying on her front,
D5                     A5
Up against the wall,
D5                       G5
She's Thunderstorms,

G5

G               Em
I've been feeling foolish,
Am                D
You should try it,
G                       Em
She came and substituted,
Am                    D
the peace and quiet,
Am          D                  Am      D
for acrobatic blood, flow, concertina
Bm            Em
Cheating heartbeat,
Am        D
Rapid fire.

Cm G5

Cm                    G5
She's Thunderstorms,
Cm                  A5
Lying on her front,
D5                     A5
Up against the wall,
D5                       G5
She's Thunderstorms,
Cm                        G5
Hear who's your host,
             Cm                         A5
Sounds as if she's pretty close,
                     D5                                  A5
When the heat starts growing horns,
D5                       G
She's Thunderstorms.

(no guitar but the chords from verse 1 will work)
She's been loop the looping,
Around my mind,
Her motorcycle boots,
Give me this kind of acrobatic blood, concertina,
Bm       Em          Am
Cheating heartbeat,
      D
Rapid fire,

Cm G5

Cm                    G5
She's Thunderstorms,
Cm                  A5
Lying on her front,
D5                     A5
Up against the wall,
D5                 Bm      Cm      Bm
She's Thunderstorms, in an unusual place,
            Cm                   Am     D
When you're feeling far away,
                             Am          D
She does what the night does to the day.

G5 Cm G5 Cm A5 D5 A5 D5 G5

Cm                    G5
She's Thunderstorms,
Cm                  A5
Lying on her front,
D5                     A5
Up against the wall,
D5                       G5       Cm
She's Thunderstorms,
               G5      Cm
Thunderstorms,
               G5      Cm
Thunderstorms,

G5 Cm

G (let ring)











************************************

| /   slide up
| \   slide down
| h   hammer-on
| p   pull-off
| ~   vibrato
| +   harmonic
| x   Mute note
| b   Bend
| pb  Pre-bend
| br  Bend release
| pbr Pre-bend release
| brb Bend release bend

************************************
Tap to rate this tab
 
# A B C D E F G H I J K L M N O P Q R S T U V W X Y Z