Song name
# A B C D E F G H I J K L M N O P Q R S T U V W X Y Z

Arctic Monkeys - You Probably Couldnt See For The Lights But You Were Looking Straight At Me tab

Intro

E|-------------------------------------------------------------------------|
B|-------------------------------------------------------------------------|
G|---------------------------------------------------9-8-7-9-8-7-----------|
D|---1-(x10)-----5-4-3-5-4-3-(x3)------------------------------------------|
A|-------------------------------------------------------------------------|
E|---------------------------------2-4-6-6-6-6-6-6-------------------------|

Verse

E|-----------------------------------------|
B|-----------------------------------------|
G|---------9---7---------------------------|  (x4)
D|-9---5---9---7---9---7---9---7---5-------|
A|-9---5---7---5---9---7---9---7---5-------|
E|-7---3-----------7---5---7---5---3-------|

Chorus

E|-------------------------------------------------------------------------|
B|-------------------------------------------------------------------------|
G|-------------------------2--3--4--5--6--7--8--(x4)-----------------------|
D|--4---4---5---5---6---6--------------------------------------------------|
A|--4---4---5---5---6---6-(x4)---------------------------------------------|
E|--2---2---3---3---4---4--------------------------------------------------|

E|-------------------------------------------------------------------------|
B|-------------------------------------------------------------------------|
G|-------------------------------------------------------------------------|
D|-1-(x10)-----5--4--3--5--4--3----1-(x10)-----5--4--3--5------------------|
A|-------------------------------------------------------------------------|
E|-------------------------------------------------------------------------|

2nd verse

The 2nd verse is the same but half way it changes.

E|-------------------------------------------|
B|-------------------------------------------|
G|-----5-5-5-5-5-6-6-6-6-6-7-7-7-7-7-8-8-8-8-|  (x4)
D|-------------------------------------------|
A|-------------------------------------------|
E|-------------------------------------------|

then play the chorus again

then

E|-----------------------------------------------------------|
B|-------4-4-4-4-4-4-4-4-------------------------------------|
G|-----------------------------------------------------------|
D|-----------------------------------------------------------|
A|---------------------------4-4-4-4-4-4-4-4-----------------|
E|-----------------------------------------------------------|


Tap to rate this tab
# A B C D E F G H I J K L M N O P Q R S T U V W X Y Z