Song name
# A B C D E F G H I J K L M N O P Q R S T U V W X Y Z

Arctic Monkeys - Little Illusion Machine Wirral Riddler tab

These are the main parts (no solo, sorry) for the new Arctic Monkeys b-side to The
Hellcat Spangled Shalalala. It's released under the Death Ramps pseudonym, titled Little
Illusion Machine (Wirral Riddler) and features Miles Kane. This tab is my first, so any 
advice and corrections are very welcome. Credit goes  to CircusBesercus on AMUS as well. The
riff can be played in Drop D tuning, but as that part of the riff is in standard, it's 
on the D string. The walkdown is best played in Drop D.

MAIN RIFF (FROM 0:00):

e|--------------------------|--------------------------|
B|--------------------------|--------------------------|
G|--------------------------|--------------------------|
D|--5--5--8--5--0--0--8--5--|--5--8--5--0--0--8--------|
A|--------------------------|--------------------4--4--|
E|--------------------------|--------------------------|

WALKDOWN SECTION (TABBED FOR DROP D):

e|--------------------------|
B|--------------------------|
G|--------------7--8--5-----|
D|--8--7--6--5--7--8--5-----|
A|--8--7--6--5--5--6--3-----|
D|--8--7--6--5--------------|

LICK BEFORE ALEX TURNER'S VOCALS (FROM 1:13):

I haven't tabbed this yet, but it's simple enough. Bend on the B string at the eleventh
fret so it sounds like the thirteenth. The next part slides up from the third fret to
the tenth, and then Alex's verse comes in.
Tap to rate this tab
# A B C D E F G H I J K L M N O P Q R S T U V W X Y Z