Song name
# A B C D E F G H I J K L M N O P Q R S T U V W X Y Z

Arctic Monkeys - Riot Van tab

=============================
Song: Riot Van
Artist: Arctic Monkeys
Tuning: Standard
=============================

Intro/Bridges

e|--------------|
B|--7----5---3--|
G|--6----4---2--|
D|--7----6---4--|
A|--5----4---2--|
E|--------------|


Verse/Second Guitar During Solo


e|-----------------------0------0------0-----|
B|---------5------3------0------2------0-----|
G|--6------4------2------1------1------1-----|
D|--7------6------4------2------2------2-----|
A|--7------4(x8)--2(x8)--2------2------2-----|
E|--5(x8)----------------0(x3)--0(x4)--0(x1)-|

Solo

e|-------------------------------------------------|
B|-------------------------------------------------|
G|-------------------------------------------------|
D|-----------9\4--4-2~-4------------4/11--9/14--2--|
A|--0~--9\4----------------0~--9\4-----------------|
E|-------------------------------------------------|

Hope that helps!


=====================================
Tap to rate this tab
 
# A B C D E F G H I J K L M N O P Q R S T U V W X Y Z