Song name
# A B C D E F G H I J K L M N O P Q R S T U V W X Y Z

Arctic Monkeys - Piledriver Waltz tab

Song: Piledriver Waltz
Artist: Arctic Monkeys
Tuning: Standard

Introduction (from 0:00):

e|--7-----7-----7-----7-----7-----7-----7-----7-----| 
B|-----9-----9-----9-----9-----9-----9-----9-----9--|
G|--------------------------------------------------|
D|--------------------------------------------------|
A|--------------------------------------------------|
E|--------------------------------------------------|

e|--7-----7-----7-----7-----7-----7-----7-----7-----| 
B|-----9-----9-----9-----9-----9-----9-----9-----9--|
G|--------------------------------------------------|
D|--------------------------------------------------|
A|--------------------------------------------------|
E|--------------------------------------------------|

Lead guitar during verse (from 0:18):

e|--7-----7-----7-----9-----9-----9-----8-----8-----8-----9------9------9------| 
B|-----9-----9-----9-----9-----9-----9-----9-----9-----9-----10-----10-----10--|
G|-----------------------------------------------------------------------------|
D|-----------------------------------------------------------------------------|
A|-----------------------------------------------------------------------------|
E|-----------------------------------------------------------------------------|

e|--7-----7-----7-----9-----9-----9-----8-----8-----8-----9------9------9------| 
B|-----9-----9-----9-----9-----9-----9-----9-----9-----9-----10-----10-----10--|
G|-----------------------------------------------------------------------------|
D|-----------------------------------------------------------------------------|
A|-----------------------------------------------------------------------------|
E|-----------------------------------------------------------------------------|

e|--7-----7-----7-----7-----7-----7-----7--|
B|-----9-----9-----9-----9-----9-----9-----|
G|-----------------------------------------|
D|-----------------------------------------|
A|-----------------------------------------|
E|-----------------------------------------|

Outro lead (from 2:23):

E|--12----14-11-----12--9-11---9-8-9-11-9----9-7-5-4------| 
B|---------------------------------------------------7-5--| 
G|--------------------------------------------------------| 
D|--------------------------------------------------------| 
A|--------------------------------------------------------| 
E|--------------------------------------------------------| 

E|--12----14-11-----12--9-11---9-8-9-11-9----9-7-5-4------| 
B|---------------------------------------------------7-5--| 
G|--------------------------------------------------------| 
D|--------------------------------------------------------| 
A|--------------------------------------------------------| 
E|--------------------------------------------------------| 

E|--12----14-11-----12--9-11---9-8-9-11-9----9-7-5-4------| 
B|---------------------------------------------------7-5--| 
G|--------------------------------------------------------| 
D|--------------------------------------------------------| 
A|--------------------------------------------------------| 
E|--------------------------------------------------------| 

E|--12----14-11-----12--9-11---9-8-9-11-9--| 
B|-----------------------------------------| 
G|-----------------------------------------| 
D|-----------------------------------------| 
A|-----------------------------------------| 
E|-----------------------------------------| 
Tap to rate this tab
# A B C D E F G H I J K L M N O P Q R S T U V W X Y Z