Song name
# A B C D E F G H I J K L M N O P Q R S T U V W X Y Z

Arctic Monkeys - Evil Twin tab

Song: Evil Twin
Artist: Arctic Monkeys
Album: Suck it and See (b-side)
Additional: Standard tuning and credit to Frank Dive on ArcticMonkeysUS

Main riff (from 0:00):

e|---------------------------------------|
B|---------------------------------------|
G|---------------------------------------|
D|---------------------------------------|
A|---------------------------------------|
E|--2--2--2--2--0--5--0--2--2--2--2--2---|

"Your love's not what I need":

e|---------------------------------------|
B|---------------------------------------|
G|---------------------------------------|
D|--12--12--12--12--7--7--7--9--9--9-----|
A|--12--12--12--12--7--7--7--9--9--9-----|
E|--10--10--10--10--5--5--5--7--7--7--2--|

e|------------------------------|
B|------------------------------|
G|--14/14--/16b18r--14/12--/16--|
D|------------------------------|
A|------------------------------|
E|------------------------------|

Chorus:

e|---------------------------------|
B|---------------------------------|
G|---------------------------------|
D|--12--9--12--9--12--9--12--9--10-|
A|--12--9--12--9--12--9--12--9--10-|
E|--10--7--10--7--10--7--10--7--8--|

Solo:

e|---------------------------------|
B|---------------------------------|
G|---------------------------------|
D|--12--9--12--9--12--9--12--9--10-|
A|--12--9--12--9--12--9--12--9--10-|
E|--10--7--10--7--10--7--10--7--8--|


Tap to rate this tab
 
# A B C D E F G H I J K L M N O P Q R S T U V W X Y Z