Song name
# A B C D E F G H I J K L M N O P Q R S T U V W X Y Z

Arctic Monkeys - Evil Twin tab

EVIL TWIN:
alex's guitar

e---------------------------------------------------|
B---------------------------------------------------|
G---------------------------------------------------|
D---------------------------------------------------|
A---------------------------------------------------|
E---2-2-2--2--0--5---0---2---2-2-2-2----------------|

repeat it so many times then hold on 2

at the "i really have to go" part alex does this

e-----------------------------------------------------------------|
B-----------------------------------------------------------------|
G-----------------------------------------------------------------|
D----12--12-121212------777-----999-------------------------------|
A----12--12-121212------777-----999-------------------------------|
E----10--10--101010-----555-----777------2~~~---------------------|

do it twice and end with the main riff

inbetween the "not what i need" bits he plays

e---------------------------------------------|
B---------------------------------------------|
G---11/14----/16b18r-14/12---/16--------------|
D---------------------------------------------|
A---------------------------------------------|
E---------------------------------------------|

adn in the 2nd chorus he ends with this

e------------------------------------------------------|
B------------------------------------------------------|
G--16--14--11--9/11/9----/16b--------------------------|
D------------------------------------------------------|
A------------------------------------------------------|
E------------------------------------------------------|

the first time round alex skips the first bit
e-----------------------------------------------------------------------------|
B-----------------------------------------------------------------------------|
G-----------------------------------------------------------------------------|
D---1111111111---------7-7-7-7---14-14-14-14----------------------------------|
A---1111111111---------7-7-7-7---14-14-14-14----------------------------------|
E---9-9-9-9-9----------5-5-5-5---12-12-12-12----------------------------------|


e-----------------------------------------------------------------------------|
B-----------------------------------------------------------------------------|
G-----------------------------------------------------------------------------|
D---1111111111-----------7-7-7-7---14-14-14-14--------------------------------|
A---1111111111----------7-7-7-7---14-14-14-14---------------------------------|
E---9-9-9-9-9-------5-5-5-5---12-12-12-12-------------------------------------|



e-----------------------------------------------------------------------------|
B-----------------------------------------------------------------------------|
G-----------------------------------------------------------------------------|
D--1111111111--10-1010---8-88----10--1010------8----88-----77--55---4---4-----|
A--1111111111--10-1010---8-88----10--1010------8----88-----77--55---4---4-----|
E--9-9-9-9-9---8--8-8----6-66----8---8-8-------6----66-----55--33---2---2-----|


after that he does a solo which sounds easy enough but ill have to wait for the studio 
version before i attempt it


jamies guitar

e---------------------------------------------------|
B---------------------------------------------------|
G---------------------------------------------------|
D---------------------------------------------------|
A---------------------------------------------------|
E---2-2-2--2--0--5---0---2---2-2-2-2----------------|

repeat it so many times then hold on 2

during the chorus: (im not going bother with the amount of times he strums each chord i 
know ill just mess it up)

e-----------------------------------------------------------------------------|
B-----------------------------------------------------------------------------|
G-----------------------------------------------------------------------------|
D---12----9-------------------------------------------------------------------|
A---12----9-------------------------------------------------------------------|
E---10----7-------------------------------------------------------------------| x3



e----------------------------------------------------------------------------|
B----------------------------------------------------------------------------|
G----------------------------------------------------------------------------|
D---12---9---10--------------------------------------------------------------|
A---12---9---10--------------------------------------------------------------|
E---10---7--8----------------------------------------------------------------|

then main riff


e-----------------------------------------------------------------------------|
B-----------------------------------------------------------------------------|
G-----------------------------------------------------------------------------|
D---12--7--9----4-------------------------------------------------------------|
A---12--7--9----4-------------------------------------------------------------|
E---10--5--7----2-------------------------------------------------------------| x2

then the main riff again

and then chorus

and then:

e----------------------------------------------------------------------------|
B----------------------------------------------------------------------------|
G----------------------------------------------------------------------------|
D---1111111111-------7-7-7-7---14-14-14-14-----------------------------------|
A---1111111111-------7-7-7-7---14-14-14-14-----------------------------------|
E---9-9-9-9-9--------5-5-5-5---12-12-12-12-----------------------------------|


e----------------------------------------------------------------------------|
B----------------------------------------------------------------------------|
G----------------------------------------------------------------------------|
D---1111111111------7-7-7-7---14-14-14-14------------------------------------|
A---1111111111------7-7-7-7---14-14-14-14------------------------------------|
E---9-9-9-9-9-------5-5-5-5---12-12-12-12------------------------------------|



e-----------------------------------------------------------------------------|
B-----------------------------------------------------------------------------|
G-----------------------------------------------------------------------------|
D--1111111111--10-1010--888--10----1010-----8----88-----77--55---4---4--------|
A--1111111111--10-1010--888--10----1010-----8----88-----77--55---4---4--------|
E--9-9-9-9-9--8-8-8--6--66----8----8-8------6----66-----55--33---2---2--------|

during alex's solo he plays this over and over


e-----------------------------------------------------------------------------|
B-----------------------------------------------------------------------------|
G-----------------------------------------------------------------------------|
D---12----9-------------------------------------------------------------------|
A----12----9------------------------------------------------------------------|
E----10----7------------------------------------------------------------------|x3

but for the last one he plays this


e-----------------------------------------------------------------------------|
B-----------------------------------------------------------------------------|
G-----------------------------------------------------------------------------|
D---12---9---10---------------------------------------------------------------|
A---12---9---10---------------------------------------------------------------|
E---10---7---8----------------------------------------------------------------|



alex's guitar can be played like this in the chorus

e--------------------------------------------------|
B----5-7/10-12br--10---/12b------------------------|
G--------------------------------------------------|
D--------------------------------------------------|
A--------------------------------------------------|
E--------------------------------------------------|
Tap to rate this tab
# A B C D E F G H I J K L M N O P Q R S T U V W X Y Z