Song name
# A B C D E F G H I J K L M N O P Q R S T U V W X Y Z

Arctic Monkeys - Love Is A Laserquest tab

-----------------------------------------------------------------------------
			     Love Is a Laserquest - Arctic Monkeys
-----------------------------------------------------------------------------
Tabbed by: lew0557
Email: lewis-chalmers@live.co.uk

Tuning: Standard (EADGBe)

Verse: (x2)
e|-7-7-7-6-4-4-4-4-4-4-4-7-6-6-6-6-----------------------------------------|
B|--7-7-7-7-4-4-4-4-5-5-5-5-7-7-7-7----------------------------------------|
G|-------------------------------------------------------------------------|
D|-------------------------------------------------------------------------|
A|-------------------------------------------------------------------------|
E|-------------------------------------------------------------------------|

Chorus:
e|-4-4-4-7-6-6-6-6--7-7-7-6-4-4-4-4-4-4-4-4--7-6-6-4-4-7-7-7-7-7-7-7-7-----|
B|--5-5-5-5-7-7-7-7--7-7-7-7-5-5-5-5-5-5-5-5--5-7-7-5-5-7-7-7-7-7-7-7-7----|
G|-------------------------------------------------------------------------|
D|-------------------------------------------------------------------------|
A|-------------------------------------------------------------------------|
E|-------------------------------------------------------------------------|

Solo: (x2)
e|-11-11-14-11-16-14-11-11-11-12-12-11-9-9-7-11-9--------------------------|
B|------------------------------------------------9s11-7-------------------|
G|-------------------------------------------------------------------------|
D|-------------------------------------------------------------------------|
A|-------------------------------------------------------------------------|
E|-------------------------------------------------------------------------|

Last chorus:
e|--4-4-4-7-6-6-6-6--7-7-7-6-4-4-4-4-4-4-4-4--7-6-6-4-4-4-4-4-4-4-4-4-4----|
B|---5-5-5-5-7-7-7-7--7-7-7-7-5-5-5-5-5-5-5-5--5-7-7-5-5-4-4-4-4-4-4-4-4---|
B|-------------------------------------------------------------------------|
G|-------------------------------------------------------------------------|
D|-------------------------------------------------------------------------|
A|-------------------------------------------------------------------------|
E|-------------------------------------------------------------------------|

e|-4-4-4-7-6-6-4-4-7-------------------------------------------------------|
B|--5-5-5-5-7-7-5-5-7------------------------------------------------------|
G|-------------------------------------------------------------------------|
D|-------------------------------------------------------------------------|
A|-------------------------------------------------------------------------|
E|-------------------------------------------------------------------------|

Structure:
Verse
Chorus
Verse
Chorus
Solo
Last Chorus

This may take a bit of learning, but its 100% correct. Enjoy!

Tap to rate this tab
 
# A B C D E F G H I J K L M N O P Q R S T U V W X Y Z