Song name
# A B C D E F G H I J K L M N O P Q R S T U V W X Y Z

Arctic Monkeys - Love Is A Laserquest tab

Song: Love is a Laserquest
Artist: Arctic Monkeys
Album: Suck it and See
Tabbed by: jackpowell1024


This is such an incredible song and so easy to learn! I couldn't find any good tabs for
it which is a shame considering how amazing it is, so I decided to make my own. Here
they're are. They're 100% correct and you'll be able to tell if you play them along with 
the song. Enjoy and please rate and comment!

Intro/Verse
e|--------------------------------------------------------------------------|
B|--12----12----12----11----9---9---9---9---9---9---9---12----11----11------|
G|-----11----11----11----11---8---8---8---8---9---9---9----11----11----11---|
D|--------------------------------------------------------------------------|
A|--------------------------------------------------------------------------|
E|--------------------------------------------------------------------------|


e|-----------------|
B|--11-----11------|
G|-----11-----11---|X3 (Repeat 3 Times)
D|-----------------|
A|-----------------|
E|-----------------|

Fourth Time
e|--------------------------------------------------------------------------|
B|--12----12----12----11----9---9----9---9---9---9---9---12----11----11-----|
G|-----11----11----11----11---8---8----8---8---9---9---9----11----11-----11-|
D|--------------------------------------------------------------------------|
A|--------------------------------------------------------------------------|
E|--------------------------------------------------------------------------|

e|-----------------------------------------|
B|--11----11----11----11----11----11-------|
G|-----11----11----11----11----11----11----|
D|-----------------------------------------|
A|-----------------------------------------|
E|-----------------------------------------|

Chorus
e|--------------------------------------------------------------------------|
B|--9---9---9---12-----11----11----11-----11----12----12----12----11--------|
G|----9---9---9----11-----11----11----11-----11----11----11----11----11-----|
D|--------------------------------------------------------------------------|
A|--------------------------------------------------------------------------|
E|--------------------------------------------------------------------------|

e|--------------------------------------------------------------------------|
B|--9---9---9---9---9---9---9---12----11----11----9---9---12----12----12----|
G|----9---9---9---9---9---9---9----11----11----11---9---9----11----11----11-|
D|--------------------------------------------------------------------------|
A|--------------------------------------------------------------------------|
E|--------------------------------------------------------------------------|

e|------------------------------------|
B|--12-----12-----12----12-----12-----|
G|-----11-----11-----11----11-----11--|
D|------------------------------------|
A|------------------------------------|
E|------------------------------------|

Second Verse
e|--------------------------------------------------------------------------|
B|--12----12----12----11----9---9---9---9---9---9---9---12----11----11------|
G|-----11----11----11----11---8---8---8---8---9---9---9----11----11----11---|
D|--------------------------------------------------------------------------|
A|--------------------------------------------------------------------------|
E|--------------------------------------------------------------------------|


e|-----------------|
B|--11-----11------|
G|-----11-----11---| (One Time)
D|-----------------|
A|-----------------|
E|-----------------|

Second Time
e|--------------------------------------------------------------------------|
B|--12----12----12----11----9---9----9---9---9---9---9---12----11----11-----|
G|-----11----11----11----11---8---8----8---8---9---9---9----11----11-----11-|
D|--------------------------------------------------------------------------|
A|--------------------------------------------------------------------------|
E|--------------------------------------------------------------------------|

e|-----------------------------------------|
B|--11----11----11----11----11----11-------|
G|-----11----11----11----11----11----11----|
D|-----------------------------------------|
A|-----------------------------------------|
E|-----------------------------------------|

Chorus
e|--------------------------------------------------------------------------|
B|--9---9---9---12-----11----11----11-----11----12----12----12----11--------|
G|----9---9---9----11-----11----11----11-----11----11----11----11----11-----|
D|--------------------------------------------------------------------------|
A|--------------------------------------------------------------------------|
E|--------------------------------------------------------------------------|

e|--------------------------------------------------------------------------|
B|--9---9---9---9---9---9---9---12----11----11----9---9---12----12----12----|
G|----9---9---9---9---9---9---9----11----11----11---9---9----11----11----11-|
D|--------------------------------------------------------------------------|
A|--------------------------------------------------------------------------|
E|--------------------------------------------------------------------------|

e|---------------------------------|
B|--12----12----12----12----12-----|
G|-----11----11----11----11----11--|
D|---------------------------------|
A|---------------------------------|
E|---------------------------------|

Third Verse
e|--------------------------------------------------------------------------|
B|--12----12----12----11----9---9---9---9---9---9---9---12----11----11------|
G|-----11----11----11----11---8---8---8---8---9---9---9----11----11----11---|
D|--------------------------------------------------------------------------|
A|--------------------------------------------------------------------------|
E|--------------------------------------------------------------------------|


e|-----------------|
B|--11-----11------|
G|-----11-----11---| (One Time)
D|-----------------|
A|-----------------|
E|-----------------|

Second Time
e|--------------------------------------------------------------------------|
B|--12----12----12----11----9---9----9---9---9---9---9---12----11----11-----|
G|-----11----11----11----11---8---8----8---8---9---9---9----11----11-----11-|
D|--------------------------------------------------------------------------|
A|--------------------------------------------------------------------------|
E|--------------------------------------------------------------------------|

e|-----------------------------------------|
B|--11----11----11----11----11----11-------|
G|-----11----11----11----11----11----11----|
D|-----------------------------------------|
A|-----------------------------------------|
E|-----------------------------------------|

Outro
e|--------------------------------------------------------------------------|
B|--9---9---9---12-----11----11----11-----11----12----12----12----11--------|
G|----9---9---9----11-----11----11----11-----11----11----11----11----11-----|
D|--------------------------------------------------------------------------|
A|--------------------------------------------------------------------------|
E|--------------------------------------------------------------------------|

e|--------------------------------------------------------------------------|
B|--9---9---9---9---9---9---9---12----11----11----9---9---9----9---9---9----|
G|----9---9---9---9---9---9---9----11----11----11---9---9----8---8---8---8--|
D|--------------------------------------------------------------------------|
A|--------------------------------------------------------------------------|
E|--------------------------------------------------------------------------|

e|--------------------------------------------------------------------------|
B|--9----9----9----9----9---9---9---12----11----11----9---9---12------------|
G|-----8----8----8----8---9---9---9----11----11----11---9---9-11------------|
D|--------------------------------------------------------------------------|
A|--------------------------------------------------------------------------|
E|--------------------------------------------------------------------------|
Tap to rate this tab
# A B C D E F G H I J K L M N O P Q R S T U V W X Y Z