Song name
# A B C D E F G H I J K L M N O P Q R S T U V W X Y Z

Arctic Monkeys - Fluorescent Adolescent tab

Band: Arctic Monkeys
Song: Fluorescent Adolescent 
Album: Favourite Worst Nightmare (2007)
Tuning: Standard E A D G B E

That's a really great song by the Monkeys so I thought I tab it out:
Here's the tab for the Lead & Rhythm Guitar. Enjoy playin the shit out of it!

 | INTRO
 | # Lead Guitar                                            2x |
E|-------------------------------------------------------------|
B|-------------------------------------------------------------|
G|-------------------------------------------------------------|
D|-------------------------------------------------------------|
A|----------------2-444---4-2-----------4-222---22-------------|
E|----000---0-2-4-------------222---2-2------------4-2---------|
 | # Rhythm Guitar                                             |
E|-----7--------------4--x4-x7-x-2------------7----------------|
B|-----8--------------5--x5-x8-x-2------------7----------------|
G|-----9--------------6--x6-x9-x-2------------8----------------|
D|-----9--------------6--x6-x9-x-4------------9----------------|
A|-----7--------------4--x4-x7-x-4------------9----------------|
E|-------------------------------2------------7----------------|
 |                                                             |
E|---x7-77-777777--x4-44-444444--x2-22-222222--x7-77-777777----|
B|---x8-88-888888--x5-55-555555--x2-22-222222--x7-77-777777----|
G|---x9-99-999999--x6-66-666666--x2-22-222222--x8-88-888888----|
D|---x9-99-999999--x6-66-666666--x4-44-444444--x9-99-999999----|
A|---x7-77-777777--x4-44-444444--x4-44-444444--x9-99-999999----|
E|-------------------------------x2-22-222222--x7-77-777777----|

 | 1st VERSE
 | # Lead Guitar
E|-------------------------------------------------------------|
B|-------------------------------------------------------------|
G|-------------------------------------------------------------|
D|-------------------------------------------------------------|
A|----------------2-444---4-2-----------4-222---22-------------|
E|----000---0-2-4-------------222---2-2------------4-2---------|
 | # Rhythm Guitar                                             |
E|---x7-77-777777--x4-44-444444--x2-22-222222--x7-77-777777----|
B|---x8-88-888888--x5-55-555555--x2-22-222222--x7-77-777777----|
G|---x9-99-999999--x6-66-666666--x2-22-222222--x8-88-888888----|
D|---x9-99-999999--x6-66-666666--x4-44-444444--x9-99-999999----|
A|---x7-77-777777--x4-44-444444--x4-44-444444--x9-99-999999----|
E|-------------------------------x2-22-222222--x7-77-777777----|

 | 2nd VERSE
 | # Lead Guitar
E|------------12~---9~---7--12--9~------------16~--------------|
B|---------12~------9~---7--12--9~---------16~-----------------|
G|------13~---------9~---8--11--9~------17~--------------------|
D|---14~-----------------------------18~-----------------------|
A|-------------------------------------------------------------|
E|-------------------------------------------------------------|
 |                                                             |
E|------------12~---9~---7--12--9------------------------------|
B|---------12~------9~---7--12--9------------------------------|
G|------13~---------9~---8--11--9------------------------------|
D|---14~-------------------------------------------------------|
A|-------------------------------------------------------------|
E|-------------------------------------------------------------|
 | # Rhythm Guitar                                             |
E|---x7-77-777777--x4-44-444444--x2-22-222222--x7-77-777777----|
B|---x8-88-888888--x5-55-555555--x2-22-222222--x7-77-777777----|
G|---x9-99-999999--x6-66-666666--x2-22-222222--x8-88-888888----|
D|---x9-99-999999--x6-66-666666--x4-44-444444--x9-99-999999----|
A|---x7-77-777777--x4-44-444444--x4-44-444444--x9-99-999999----|
E|-------------------------------x2-22-222222--x7-77-777777----|
 |                                                             |
E|---x7-77-777777--x4-44-444444---222--------------------------|
B|---x8-88-888888--x5-55-555555---222--------------------------|
G|---x9-99-999999--x6-66-666666---222--------------------------|
D|---x9-99-999999--x6-66-666666---444--------------------------|
A|---x7-77-777777--x4-44-444444---444--------------------------|
E|--------------------------------222--------------------------|

 | 1st CHORUS
 | # Rhythm Guitar 
E|---22-------77-------22--22-------77--77---------------------|
B|---22-------77-------22--22-------77--77---------------------|
G|---33-------88-------33--33-------88--88---------------------|
D|---44-------99-------44--44-------99--99---------------------|
A|---44-------99-------44--44-------99--99---------------------|
E|---22-------77-------22--22-------77--77---------------------|
 |                                                             |
E|---2-222222222222--7-777777777777---2~~--5~------------------|
B|---2-222222222222--7-777777777777---2~~--5~------------------|
G|---3-333333333333--8-888888888888---3~~--6~------------------|
D|---4-444444444444--9-999999999999---4~~--7~------------------|
A|---4-444444444444--9-999999999999---4~~--7~------------------|
E|---2-222222222222--7-777777777777---2~~--5~------------------|

 | 2nd CHORUS
 | # Rhythm Guitar 
E|---2-22222222222-7-77777777777--2-22222222222-7-77777777777--|
B|---2-22222222222-7-77777777777--2-22222222222-7-77777777777--|
G|---2-22222222222-8-88888888888--2-22222222222-8-88888888888--|
D|---4-44444444444-9-99999999999--4-44444444444-9-99999999999--|
A|---4-44444444444-9-99999999999--4-44444444444-9-99999999999--|
E|---2-22222222222-7-77777777777--4-44444444444-9-99999999999--|
 |                                                             |
E|---22-------77-------2-22222222222-7-77777777777-------------|
B|---22-------77-------2-22222222222-7-77777777777-------------|
G|---33-------88-------2-22222222222-8-88888888888-------------|
D|---44-------99-------4-44444444444-9-99999999999-------------|
A|---44-------99-------4-44444444444-9-99999999999-------------|
E|---22-------77-------2-22222222222-7-77777777777-------------|

 | BRIDGE
 | # Rhythm Guitar 
E|---4-4~--4-4~-----9--9~--9--9~----2-2~--2-2~----4-4~--2-2~---|
B|---4-4~--4-4~-----9--9~--9--9~----2-2~--2-2~----4-4~--2-2~---|
G|---4-4~--4-4~-----9--9~--9--9~----2-2~--2-2~----4-4~--2-2~---|
D|---6-6~--6-6~----11-11~-11-11~----4-4~--4-4~----6-6~--4-4~---|
A|---6-6~--6-6~----11-11~-11-11~----4-4~--4-4~----6-6~--4-4~---|
E|-------------------------------------------------------------|

 | INTERLUDE
 | # Lead Guitar
E|-------------------------------------------------------------|
B|-------------------------------------------------------------|
G|-------------------------------------------------------------|
D|-------------------------------------------------------------|
A|----------------2-444---4-2-----------4-222---22-------------|
E|----000---0-2-4-------------222---2-2------------4-2---------|
 |                                                             |
E|-------------------------------------------------------------|
B|-------------------------------------------------------------|
G|-------------------------------------------------------------|
D|-------------------------------------------------------------|
A|----------------2-444---4-2-----------4-222---2--------------|
E|----000---0-2-4-------------222---2-2------------------------|
 |                                                             |
E|-------------------------------------------------------------|
B|-------------------------------------------------------------|
G|-------------------------------------------------------------|
D|-------------------------------------------------------------|
A|----------------2-444---4-2-----------4-22222222-66666764----|
E|----000---0-2-4-------------222---2-2------------------------|
 | # Rhythm Guitar                                             |
E|----777----444----22----777-----777----444----22----777------|
B|----888----555----22----777-----888----555----22----777------|
G|----999----666----22----888-----999----666----22----888------|
D|----999----666----44----999-----999----666----44----999------|
A|----777----444----44----999-----777----444----44----999------|
E|------------------22----777-------------------22----777------|
 |                                                             |
E|----777----444--x4-x7---222----777777777777-777777777777-----|
B|----888----555--x5-x8---222----777777777777-777777777777-----|
G|----999----666--x6-x9---222----888888888888-888888888888-----|
D|----999----666--x6-x9---444----999999999999-999999999999-----|
A|----777----444--x4-x7---444----999999999999-999999999999-----|
E|------------------------222----777777777777-777777777777-----|

 | OUTRO
 | # Lead Guitar                                     4x |      |
E|------------------------------------------------------|------|
B|------------------------------------------------------|------|
G|------------------------------------------------------|------|
D|------------------------------------------------------|------|
A|----------------2-444---4-2-----------4-222---22------|------|
E|----000---0-2-4-------------222---2-2------------4-2--|-0~---|
 | # Rhythm Guitar                                             |
E|-x7-77-777777--x4-44-444444--x2-22-222222--x7-77-777777-|-7~-|
B|-x8-88-888888--x5-55-555555--x2-22-222222--x7-77-777777-|-8~-|
G|-x9-99-999999--x6-66-666666--x2-22-222222--x8-88-888888-|-9~-|
D|-x9-99-999999--x6-66-666666--x4-44-444444--x9-99-999999-|-9~-|
A|-x7-77-777777--x4-44-444444--x4-44-444444--x9-99-999999-|-7~-|
E|-----------------------------x2-22-222222--x7-77-777777-|----|

Order: Intro - Break (only bass) - #1.Verse - #1.Chorus
       #2.Verse - #2.Chorus - Bridge - Interlude - Outro

I think the tab's right. I think the hardest thing about it is to figure
out the Rhythm for the Main Rhythm Riff and the Lead for the 2nd Verse.

If you have any questions etc. or other shit:
Send me a Mail: My Name's Chad - TheSuburbiaBomb@Gmail.Com
Or Visit My Blog: SuburbiaBomb.Blogspot.Com
Tap to rate this tab
# A B C D E F G H I J K L M N O P Q R S T U V W X Y Z