Song name
# A B C D E F G H I J K L M N O P Q R S T U V W X Y Z

Arctic Monkeys - Brick By Brick tab

Brick by brick by Arctic Monkeys

Solo 1 (After first chorus)
|---------------------------------------------------------|
|-----------------------------15b16-------15b16-12--------|
|--14b15-14b16b14----14-12--------------------------------|
|--------------------------14-----------------------------|
|---------------------------------------------------------|
|---------------------------------------------------------|

|---------------------------------------------------------|
|---------------------------------------------------------|
|-12-14-12-14-14b15-12------------12----------------------|
|----------------------14---12-14----14/0-----------------|
|---------------------------------------------------------|
|---------------------------------------------------------|


Solo 2 (Breakdown section)
|----------------------------12-10--------------------------------|
|----------------------------------12-----------------------------|
|-0/9-9--9----------------------------13--12/0--------------------|
|--------0/7------------------------------------7b8b7-------------|
|------------0/5b6b5b6b5/0-------------------------------5b6b5/---|
|-----------------------------------------------------------------|

thanks
Tap to rate this tab
 
# A B C D E F G H I J K L M N O P Q R S T U V W X Y Z