Song name
# A B C D E F G H I J K L M N O P Q R S T U V W X Y Z

Arctic Monkeys - Dance Little Liar tab

Arctic Monkeys - Dance Little Liar.

This is the one hundred percent correct version of the amazing Arctic Monkeys song Dance 
Little Liar, from their 2009 third album Humbug.  Enjoy!  Oh, and I use some strange 
symbols for Gtr. 1's part, so look at the Legend at the bottom of the tab for an explanation.

Guitar 1 - E  A  D  G  B  E
Guitar 2 - E  A  D  G  B  E

Intro (Gtr. 1):
|----------------|
|----------------|
|----------------|
|----------------|
|--4(ED)~/6~-----|
|------------2~--| (x4)

Verse 1 (Gtr. 2) (for Gtr. 1, same as before):
|--4-4-4-4--4-4-4-4---9--9--9--9--9--9--9--9--|
|--5-5-5-5--4-4-4-4--10-10-10-10-10-10-10-10--|
|--6-6-6-6--6-6-6-6--11-11-11-11-11-11-11-11--|
|--6-6-6-6--6-6-6-6--11-11-11-11-11-11-11-11--|
|--4-4-4-4--4-4-4-4---9--9--9--9--9--9--9--9--|
|---------------------------------------------|

Chorus (Gtr. 1):
|-----------------------------------------------------|
|-----------------------------------------------------|
|-----------------------------------------------------|
|-----------------------------------------------------|
|----------------4(ED)~-------------------------------|
|--5(ED)~/2(ED)~--------0(ED)~-2(ED)~--0(ED)~-4(ED)~--|

Chorus (Gtr. 2):
|--5-5-5-5-5-5-5-5-5-5-5-5--2-2-2-2--4-4-4-4-4-4-4-4--|
|--5-5-5-5-5-5-5-5-5-5-5-5--2-2-2-2--5-5-5-5-5-5-5-5--|
|--6-6-6-6-6-6-6-6-6-6-6-6--2-2-2-2--6-6-6-6-6-6-6-6--|
|--7-7-7-7-7-7-7-7-7-7-7-7--4-4-4-4--6-6-6-6-6-6-6-6--|
|--7-7-7-7-7-7-7-7-7-7-7-7--4-4-4-4--4-4-4-4-4-4-4-4--|
|--5-5-5-5-5-5-5-5-5-5-5-5--2-2-2-2--x-x-x-x-x-x-x-x--|

|--0-0-0-0--2-2-2-2-2-2-2-2-2-2-2-2--0-0-0-0--4-4-4-4-4-4-4-4-4-4-4-4--|
|--0-0-0-0--2-2-2-2-2-2-2-2-2-2-2-2--0-0-0-0--4-4-4-4-4-4-4-4-4-4-4-4--|
|--1-1-1-1--2-2-2-2-2-2-2-2-2-2-2-2--1-1-1-1--5-5-5-5-5-5-5-5-5-5-5-5--|
|--2-2-2-2--4-4-4-4-4-4-4-4-4-4-4-4--2-2-2-2--6-6-6-6-6-6-6-6-6-6-6-6--|
|--2-2-2-2--4-4-4-4-4-4-4-4-4-4-4-4--2-2-2-2--6-6-6-6-6-6-6-6-6-6-6-6--|
|--0-0-0-0--2-2-2-2-2-2-2-2-2-2-2-2--0-0-0-0--4-4-4-4-4-4-4-4-4-4-4-4--|

Verse 2 (Exactly the same as Verse 1, apart from this bit from Gtr. 1 sometime during 
the vocal harmonies):
|------------------|
|------------------|
|------------------|
|------------------|
|--4(ED)~--11~-9~--|
|------------------|

Bridge (Gtr. 2, after Chorus 2):
|--2-2-2-2-2-2-2-2--4-4-4-4-4-4-4-4--2-2-2-2-2-2-2-2--4-4-4-4-4-4-4-4--|
|--2-2-2-2-2-2-2-2--5-5-5-5-5-5-5-5--2-2-2-2-2-2-2-2--5-5-5-5-5-5-5-5--|
|--2-2-2-2-2-2-2-2--6-6-6-6-6-6-6-6--2-2-2-2-2-2-2-2--6-6-6-6-6-6-6-6--|
|--4-4-4-4-4-4-4-4--6-6-6-6-6-6-6-6--4-4-4-4-4-4-4-4--6-6-6-6-6-6-6-6--|
|--4-4-4-4-4-4-4-4--4-4-4-4-4-4-4-4--4-4-4-4-4-4-4-4--4-4-4-4-4-4-4-4--|
|--2-2-2-2-2-2-2-2--x-x-x-x-x-x-x-x--2-2-2-2-2-2-2-2--x-x-x-x-x-x-x-x--|

|--2-2-2-2-2-2-2-2--4-4-4-4-4-4-4-4--0-0-0-0-0-0-0-0--4-4-4-4-4-4-4-4--|
|--2-2-2-2-2-2-2-2--5-5-5-5-5-5-5-5--0-0-0-0-0-0-0-0--4-4-4-4-4-4-4-4--|
|--2-2-2-2-2-2-2-2--6-6-6-6-6-6-6-6--1-1-1-1-1-1-1-1--5-5-5-5-5-5-5-5--|
|--4-4-4-4-4-4-4-4--6-6-6-6-6-6-6-6--2-2-2-2-2-2-2-2--6-6-6-6-6-6-6-6--|
|--4-4-4-4-4-4-4-4--4-4-4-4-4-4-4-4--2-2-2-2-2-2-2-2--6-6-6-6-6-6-6-6--|
|--2-2-2-2-2-2-2-2--x-x-x-x-x-x-x-x--0-0-0-0-0-0-0-0--4-4-4-4-4-4-4-4--|

Bridge (Gtr. 1, after Chorus 2):
|----------------------------------------------------------------------|
|----------------------------------------------------------------------|
|----------------------------------------------------------------------|
|----------------------------------------------------------------------|
|---------4(ED)~--------4(ED)~--7(ED)~/9(ED)~--9(ED)~/7(ED)~--11(ED)~--|
|--2(ED)~--------2(ED)~------------------------------------------------|

Solo (Gtr. 1):
|-------------------------------------|
|-------------------------------------|
|-------------------------------------|
|-------------------------------------|
|-4(TP)-7--4(TP)-7--4(TP)-7--4(TP)-7--|
|-------------------------------------|

Solo (Gtr. 2, Pt. 1):
|------------------------------------|
|--9(SB)~--\2(SB)~--9(SB)~--\2(SB)~--|
|------------------------------------|
|------------------------------------|
|------------------------------------|
|------------------------------------|

Solo (Gtr. 2, Pt. 2) (Gtr. 1 continues with what it's playing):
|--12(TP)-9--12(TP)-9--12(TP)-9--12(TP)-9--|
|------------------------------------------|
|------------------------------------------|
|------------------------------------------|
|------------------------------------------|
|------------------------------------------|

Chorus 3 (Gtr. 1):
|-------------------------------------------------------|
|-------------------------------------------------------|
|-------------------------------------------------------|
|-------------------------------------------------------|
|-----------------4(ED)~------------------------4(ED)~--|
|--5(ED)~--2(ED)~--------0(ED)~--2(ED)~--0(ED)~---------|

|-------------------------------------------------------------|
|-------------------------------------------------------------|
|-------------------------------------------------------------|
|-------------------------------------------------------------|
|-----------------4(ED)~--------------------------------------|
|--5(ED)~--2(ED)~--------0(ED)~--2(ED)~--0(ED)~--4(ED)~-------|

Chorus 3 (Gtr. 2):
|--9(TP)-12--9(TP)-12--9(TP)-12--9(TP)-12--|
|------------------------------------------|
|------------------------------------------|
|------------------------------------------|
|------------------------------------------|
|------------------------------------------|

|-------------------|       |-------------------|
|--9(SB)~--\2(SB)~--|       |--9(SB)~--\1(SB)~--|
|-------------------|       |-------------------|
|-------------------|       |-------------------|
|-------------------|       |-------------------|
|-------------------| (x7)  |-------------------|

END.

And that's it!  Thanks for reading and any compliments, criticisms and questions are 
welcomed in the comment section below.  See you next time!

LEGEND:
ED = Extreme Delay (Turner uses the Boss DM-1 Analogue Delay for this song)
~  = Let Ring
/  = Slide Up
x  = Mute
SB = Slight bend
TP = Tremolo pick
\  = Slide down
Tap to rate this tab
# A B C D E F G H I J K L M N O P Q R S T U V W X Y Z