Song name
# A B C D E F G H I J K L M N O P Q R S T U V W X Y Z

Arctic Monkeys - Diamonds Are Forever tab

E|---9----------------------------------------------------------|
B|-7----9-7-9-8-9-10--------------------------------------------|
G|--------------------------------------------------------------|  Play twice
D|--------------------------------------------------------------|
A|--------------------------------------------------------------|
E|--------------------------------------------------------------|


E|---10---------------------------------------------------------|
B|-7----9-7-9-8-9-10--------------------------------------------|
G|--------------------------------------------------------------|  Play twice
D|--------------------------------------------------------------|
A|--------------------------------------------------------------|
E|--------------------------------------------------------------|


(on the riff change to)
E|---9----------------------------------------------------------|
B|-5----9-7-9-8-9-10--------------------------------------------|
G|--------------------------------------------------------------|
D|--------------------------------------------------------------|
A|--------------------------------------------------------------|
E|--------------------------------------------------------------|


King of Tappings
Tap to rate this tab
# A B C D E F G H I J K L M N O P Q R S T U V W X Y Z