Song name
# A B C D E F G H I J K L M N O P Q R S T U V W X Y Z

Arctic Monkeys - Crying Lightning tab

CRYING LIGHTNING
ARCTIC MONKEYS
HUMBUG
TIMITUNTOT

Slide= / or \

INTRO

ALEX
e|------------------------------------------------------------------------|
B|------------------------------------------------------------------------|
G|------------------------------------------------------------------------|
D|-------------0-3-------------3-2-------------0-5-3-2-0--0-2-3-----------|
A|-------0-2-3-----------0-2-3-----------0-2-3-----------3--------0-2-3-0-|
E|-0-1-4-----------0-1-4-----------0-1-4------------------------4---------|

JAMIE
e|---------5-------------------------7--5-------------8-------------------|
B|--------5------------------------------------------8-8-9----------------|
G|-------5------------------------------------------9---------------------|
D|------------------------------------------------------------------------|
A|------------------------------------------------------------------------|
E|------------------------------------------------------------------------|

VERSE

BASS GUITAR
G|----------------------------1-2---------------------------------|
D|------3-3-3-2-----------2-3------------3-3-3-3------------------|
A|-0--3-------------0--3------------0--3---------3-3-3-3----------|
E|--------------------------------------------------------4-4-4-4-|

JAMIE (later in the verse)
e|---5--------7--5------8------|
B|--5------------------8-8-9---|
G|-5------------------9--------|
D|-----------------------------|
A|-----------------------------|
E|-----------------------------|

CHORUS

ALEX and JAMIE
e|-----------------|   |---------------|
B|-----------------|   |---------------|
G|-----------------|x8 |---------------|x8
D|-----------------|   |---------------|
A|-----------7-6---|   |--7--6-------6-|
E|-5-5-5-5-8-----4-|   |-8--4--5-8-7---|

VERSE 2

ALEX- same as introduction

JAMIE
e|-5/13-----5/12------5/10-----8\4-|   |-5/13-----17\12-----5/10-----8/4-|
B|---------------------------------|   |---------------------------------|
G|---------------------------------|x2 |---------------------------------|x2
D|---------------------------------|   |---------------------------------|
A|---------------------------------|   |---------------------------------|
E|---------------------------------|   |---------------------------------|

CHORUS

ALEX
   F               Dm              Am
e|-1-1-1-1-1-1-1-1-1-1-1-1-1-1-1-1-0-0-0-0-0-0-0-0-0-0-0-0-0-0-0-0-|
B|-1-1-1-1-1-1-1-1-3-3-3-3-3-3-3-3-1-1-1-1-1-1-1-1-1-1-1-1-1-1-1-1-|
G|-2-2-2-2-2-2-2-2-2-2-2-2-2-2-2-2-2-2-2-2-2-2-2-2-2-2-2-2-2-2-2-2-|
D|-3-3-3-3-3-3-3-3-0-0-0-0-0-0-0-0-2-2-2-2-2-2-2-2-2-2-2-2-2-2-2-2-|
A|---------------------------------0-0-0-0-0-0-0-0-0-0-0-0-0-0-0-0-|
E|-----------------------------------------------------------------|

JAMIE (not 100% sure about this bit)
e|---0------------5-----------------0----------------5-------------|
B|-1---3---1------6---------------1---3--1-----------5-------------|
G|-------2--------7------------------------2---------5-------------|
D|-----------------------------------------------------------------|
A|-----------------------------------------------------------------|
E|-----------------------------------------------------------------|


BRIDGE

JAMIE
e|----------------|
B|----------------|
G|----------------|x6
D|----------------|
A|----------7-6---|
E|-5-5-5-5-8----4-|

ALEX (on the 3rd time)
e|--------------------------------------------------------------------------|
B|--------------------------------------------------------------------------|
G|-2/5/7\5/7---2/5/7\5/7\5\2---2/5/7\5/9---5/7\5\2---2/5/7\5/7\5\2/14\12/14-|
D|--------------------------------------------------------------------------|
A|--------------------------------------------------------------------------|
E|--------------------------------------------------------------------------|

-----------------------------|
-----------------------------|
12\9---12/14\12/14-5/7\5/7\2-|
-----------------------------|
-----------------------------|
-----------------------------|

ALEX and JAMIE
e|--------------|   |---------|
B|--------------|   |---------|
G|--------------|x3 |---------|
D|--------------|   |---------|
A|--7--6------6-|   |--7--6---|
E|-8--4--5-8-7--|   |-8--4--5-|

SILENCE (You can play this in the singing bit.....|G|--2---|)

CHORUS TO HE END

END WITH |e|--5--|
         |B|--5--|
         |G|--5--|
         |D|-----|
         |A|-----|
         |E|-----|
Tap to rate this tab
# A B C D E F G H I J K L M N O P Q R S T U V W X Y Z