Song name
# A B C D E F G H I J K L M N O P Q R S T U V W X Y Z

Arctic Monkeys - R U Mine tab

This is the tab of "R U mine", from Arctic Monkeys.
Try seeing the tab listening to the song and you'll have no problems to find the 
correspondent parts.
Hope you enjoy. (:



beginning riff:

e|----------------------------------------------------|
B|----------------------------------------------------|
G|----------------------------------------------------|
D|----------------------------------------------------|
A|----------------------2h4-4-2h4--5--5-5-4-2~-2/14~~-|
E|--2~~--------2--2-2---------------------------------|


Main riff:

e|------------------------------------------------------------------------|
B|------------------------------------------------------------------------|
G|------------------------------------------------------------------------|
D|-------------------7~---------------------------------------------------|
A|---------------7h9----9-7--5--5-5-4-2--2-2------------------------------|
E|--2--2-2/7-7h9-----------------------------5-2~-------------------------|


about 0:40, that's the second guitar...
 
e|------------------------------------------------------------------------|
B|------------------------------------------------------------------------|
G|------------------------------------------------------------------------|
D|--12--12-12-11--9--9-9--------------------------------------------------|
A|-----------------------12-9~--------------------------------------------|
E|------------------------------------------------------------------------|


...and the guitar at the end of this part

e|------|-----------------------------------------------------------------|
B|------|-----------------------------------------------------------------|
G|------|-----------------------------------------------------------------|
D|------|-----------------------------------------------------------------|
A|------|------7h9-----7h9------------------------------------------------|
E|--2~~-|--7h9-----7h9-----7h9-10--10-10-9---7---5-2~---------------------|


About 1:55

e|--------------------------------------------------------------------------|
B|--------------------------------------------------------------------------|
G|--------------------------------------------------------------------------|
D|--------------------------------------------------------------------------|
A|------7h9-----7h9------------------7---4-2--2--2-2--4-5--5-5-4------------|
E|--7h9-----7h9-----7h9-10--10-10-9------------------------------2--2-2--4-5|

e|------------------------------------------------------------------------|
B|------------------------------------------------------------------------|
G|------------------------------------------------------------------------|
D|------------------------------------------------------------------------|
A|--2--2-2--4--5-5--4-4--2-2----------------------------------------------|
E|----------------------------5-5--2--2-2---------------------------------|


Solo:

e|--------------------------------------|
B|------------------8h10-10b-10~--------|
G|--------------7h9---------------9b-9~-|
D|----------7h9-------------------------|
A|------7h9-----------------------------|
E|--7h9---------------------------------|

e|--------------------------------|
B|--------------------------------|
G|--------------------------------|
D|--------------------------------|
A|--------------------------------|
E|--5h7p5h7p5...--5-7-9-5-2--2-2~-|


The final part, near to the end:
e|-------------------------------------------------------------------------|
B|-------------------------------------------------------------------------|
G|-------------------------------------------------------------------------|
D|--------------------------------------7h9p7------------------------------|
A|-----------------------------------7h9-----9-7---------------------------|
E|--2--2-2--5--5-5--7--7-7--5...--7h9-----------9-10-12-10-9--10--5/14-14~-|
Tap to rate this tab
# A B C D E F G H I J K L M N O P Q R S T U V W X Y Z