Song name
# A B C D E F G H I J K L M N O P Q R S T U V W X Y Z

Arctic Monkeys - R U Mine tab

Main Riff
e) ---------------------------|
B) ---------------------------|
G) ---------------------------|
D) ---------------------------|
A) --5--5-5-4-2--2-2-0--------|
E) --------------------2--2-2-|

Fill 1
e) -------------------|
B) -------------------|
G) ------------2------|
D) -------2-4h---4-2--| 
A) --2-4h-------------|
E) -------------------|

Fill 2
e) ----------------------------|
B) ----------------------------|
G) ----------------------------|
D) -------2-4h------2-4h-------| 
A) --2-4h------2-4h------2-4h--|
E) ----------------------------|

Bridge and Outro
e) ------------------------------|
B) ------------------------------|
G) ------------------------------|
D) ------------------------------| 
A) ---------------0-00-0--2-22-2-|
E) -2-22-2-2-22-2----------------|


The only thing I'm missing is the solo and the outro fill
Tap to rate this tab
# A B C D E F G H I J K L M N O P Q R S T U V W X Y Z