Song name
# A B C D E F G H I J K L M N O P Q R S T U V W X Y Z

Arctic Monkeys - R U Mine tab

Verse
e-----------------------------------------------------------------------------------|
B-----------------------------------------------------------------------------------|
G-----------------------------------------------------------------------------------|
D-----------------------------------------------------------------------------------|
A---------------2h4---2h4--5--5-5-5-4--2-2/14---------------------------------------|
E--2--2-2---------------------------------------------------------------------------|

Chorus: "But I go crazy"
e------------------------------------------------------------------------------------|
B------------------------------------------------------------------------------------|
G------------------------------2-----------------------------------------------------|
D-----------------------2h4-----4--2-------------------------------------------------|
A---------------2h4---------------------5--5-5--4--2--2-2-0--------------------------|
E-----2-2-2--------------------------------------------------------------------------|


VARIATION ON CHORUS
e-----------------------------------------------------------------------------------|
B-----------------------------------------------------------------------------------|
G------------------------------2----------------------------------------------------|
D-----------------------2h4-----4p2-------------------------------------------------|
A---------------2h4---------------------4p2--5--5-5--4--2--2-2-0--------------------|
E-----2-2-2-------------------------------------------------------------------------|

VARIATION #2
e------------------------------------------------------------------------------------|
B------------------------------------------------------------------------------------|
G------------------------------------------------------------------------------------|
D-----------------------2h4----------2h4---------------------------------------------|
A---------------2h4-----------2h4-----------2h4----5--5-5--4--2--2-2-0---------------|
E-----2-2-2--------------------------------------------------------------------------|

Bridge (after second chorus) Can be played as power chords if you like
e------------------------------------------------------------------------------------|
B------------------------------------------------------------------------------------|
G------------------------------------------------------------------------------------|
D---------------2--------------------------------------------------------------------|
A----5---5-5-4----4--2--2-2--2-2--2--5--5-5--5-5---5-5--4----------------------------|
E-----------------------------------------------------------2--2-2--2-2--2-2---2-4---|

Bridge cont'd
e----------------------------------------------------------------------------|
B----------------------------------------------------------------------------|
G----------------------------------------------------------------------------|
D----------------------------------------------------------------------------|
A----2--2-2----2-2---2-2---4--5---5-4---4-2---2-0--0-------------------------|
E------------------------------------------------------------------2-2-2-2---|

"Solo"
e---------------------------------------2h5/7---5b---2b-------------------------------|
B-------------------------------2h5--------------------------5------------------------|
G-----------------------2h4-----------------------------------------------------------|
D---------------2h4-------------------------------------------------------------------|
A--------2h4--------------------------------------------------------------------------|
E-------------------------------------------------------------------------------------|

e-----------------------------------------------------------------------|
B-----------------------------------------------------------------------|
G-----------------------------------------------------------------------|
D-----------------------------------------------------------------------|
A-----------------------0h2p0h2p0h2p0h2---(second guitar)--5--5-5-4-----|
E-------2--2-2----------------------------------------------------------|


Chorus: "I go CRAZY"
e-----------------------------------------------------------------------|
B-----------------------------------------------------------------------|
G------------------------------2----------------------------------------|
D-----------------------2h4-----4--2------------------------------------|
A---------------2h4---------------------5--5-5--4--2--2-2-0-------------|
E-----2-2-2-------------------------------------------------------------|

Variation
e--------------------------------------------------------------------------|
B--------------------------------------------------------------------------|
G--------------------------------------------------------------------------|
D-----------------------2h4----4-4--2--------------------------------------|
A---------------2h4------------------------5--5-5--4--0h2/4--0-------------|
E-----2-2-2----------------------------------------------------------------|

VARIATION #2
e----------------------------------------------------------------------------|
B----------------------------------------------------------------------------|
G----------------------------------------------------------------------------|
D-----------------------2h4----------2h4-------------------------------------|
A---------------2h4-----------2h4-----------2h4----5--5-5--4--2--2-2-0-------|
E-----2-2-2------------------------------------------------------------------|


"Are you mine tomorrow"
e--------------------------------------------------------------------|
B--------------------------------------------------------------------|
G--------------------------------------------------------------------|
D--------------------------------------------------------------------|
A--------------------------------------------------------------------|
E--2--2-2--2-2--2-2----4-5--5-5--5-7---7-7--5------------------------|

Ending Riff
e------------------------------------------------------------------------------------|
B------------------------------------------------------------------------------------|
G---------------------------------2--------------------------------------------------|
D-----------------------2h4-4-------4p2----------------------------------------------|
A---------------2h4--------------------------4p2--5--5--7---5p4--2--4--0-------------|
E--2-2-2-------------------------------------------------------------------2--2-2-2--|
Tap to rate this tab
 
# A B C D E F G H I J K L M N O P Q R S T U V W X Y Z