Song name
# A B C D E F G H I J K L M N O P Q R S T U V W X Y Z

Arctic Monkeys - R U Mine tab

-------------------------------------------------------------------------------
                             RU Mine? - Arctic Monkeys
-------------------------------------------------------------------------------
Tabbed by: meta40 - tomytomytomytom
Email: tomotm@yopmail.com

Tuning: Normal

1st verse

e|---------------------------------------------------------------------------|
B|---------------------------------------------------------------------------|
G|---------------------------------------------------------------------------|
D|------------------------------/9b-----x3-----------------------------------|
A|--------/4-/4-/5---5-5--4--2-----------------------------------------------|
E|-2--2-2------------------------------------------(-2-2-2-2 the 3 last time)|

e|---------------------------------------------------------------------------|
B|---------------------------------------------------------------------------|
G|---------------------------------------------------------------------------|
D|---------------------------------------------------------------------------|
A|--------/4-/4-/5---5-5--4--2---2-2-0---x1----------------------------------|
E|-2--2-2--------------------------------------------------------------------|

e|---------------------------------------------------------------------------|
B|---------------------------------------------------------------------------|
G|---------------2-----------------------------------------------------------|
D|-----------2h4----4--2---------------------------x2------------------------|
A|--------2h4------------/5---5-5--4--2---2-2-0------------------------------|
E|-2--2-2--------------------------------------------------------------------|


e|---------------------------------------------------------------------------|
B|---------------------------------------------------------------------------|
G|---------------2--4-2------------------------------------------------------|
D|-----------2h4--------4-2------------------------x1------------------------|
A|--------2h4---------------/5--5-5--4--2---2-2--0---------------------------|
E|-2--2-2--------------------------------------------------------------------|


e|---------------------------------------------------------------------------|
B|---------------------------------------------------------------------------|
G|---------------2-----------------------------------------------------------|
D|-----------2h4----4--2---------------------------x1------------------------|
A|--------2h4------------/5---5-5--4--2---2-2-0------------------------------|
E|-2--2-2--------------------------------------------------------------------|




1st chorus

e|---------------------------------------------------------------------------|
B|---------------------------------------------------------------------------|
G|---------------------------------------------------------------------------|
D|---------------------------------------------------x2----------------------|
A|------------------------5---5-5--4--2---2-2-0------------------------------|
E|-2--2-2--------------------------------------------------------------------|


e|---------------------------------------------------------------------------|
B|---------------------------------------------------------------------------|
G|---------------------------------------------------------------------------|
D|---------------------------------------------------x1----------------------|
A|------------------------5---5-5--4--2---2-2-0------------------------------|
E|-2--2-2---3~---------------------------------------------------------------|

e|---------------------------------------------------------------------------|
B|---------------------------------------------------------------------------|
G|---------------------------------------------------------------------------|
D|-----------2h4---2h4-----------------------------------x1------------------|
A|--------2h4---2h4---2h4------/5---5-5--4---2---0---------------------------|
E|-2--2-2--------------------------------------------------------------------|

e|---------------------------------------------------------------------------|
B|---------------------------------------------------------------------------|
G|---------------------------------------------------------------------------|
D|---------------------------------------------------------------------------|
A|---------------------------------------------------------------------------|
E|-2--2---------2nd verse start----------------------------------------------|



2nd verse

e|---------------------------------------------------------------------------|
B|---------------------------------------------------------------------------|
G|---------------------------------------------------------------------------|
D|---------------------------------------------------x1----------------------|
A|------------------------5---5-5--4--2---2-2-0------------------------------|
E|---------------------------------------------------------------------------|

e|---------------------------------------------------------------------------|
B|---------------------------------------------------------------------------|
G|---------------2-----------------------------------------------------------|
D|-----------2h4----4--2---------------------------x2------------------------|
A|--------2h4------------/5---5-5--4--2---2-2-0------------------------------|
E|-2--2-2--------------------------------------------------------------------|


e|---------------------------------------------------------------------------|
B|---------------------------------------------------------------------------|
G|---------------2--4-2------------------------------------------------------|
D|-----------2h4--------4-2------------------------x1------------------------|
A|--------2h4---------------/5--5-5--4--2----4---4---------------------------|
E|-2--2-2---------------------------------5h7-7p5----------------------------|

e|---------------------------------------------------------------------------|
B|---------------------------------------------------------------------------|
G|---------------2-----------------------------------------------------------|
D|-----------2h4----4--2---------------------------x1------------------------|
A|--------2h4------------/5---5-5--4--2---2-2-0------------------------------|
E|-2--2-2--------------------------------------------------------------------|



2nd chorus


e|---------------------------------------------------------------------------|
B|---------------------------------------------------------------------------|
G|---------------------------------------------------------------------------|
D|---------------------------------------------------x1----------------------|
A|------------------------5---5-5--4--2---2-2-0------------------------------|
E|---------------------------------------------------------------------------|

e|---------------------------------------------------------------------------|
B|---------------------------------------------------------------------------|
G|---------------------------------------------------------------------------|
D|---------------------------------------------------x1----------------------|
A|------------------------5---5-5--4--2---2-2-0------------------------------|
E|-2--2-2--------------------------------------------------------------------|


e|---------------------------------------------------------------------------|
B|---------------------------------------------------------------------------|
G|---------------------------------------------------------------------------|
D|---------------------------------------------------x1----------------------|
A|------------------------5---5-5--4--2---2-2-0------------------------------|
E|-2--2-2--------------------------------------------------------------------|

e|---------------------------------------------------------------------------|
B|---------------------------------------------------------------------------|
G|---------------------------------------------------------------------------|
D|-----------2h4---2h4-----------------------------------x1------------------|
A|--------2h4---2h4---2h4------/5---5-5--4---7---4---------------------------|
E|-2--2-2--------------------------------------------------------------------|




break

e|---------------------------------------------------------------------------|
B|---------------------------------------------------------------------------|
G|---------------------------------------------------------------------------|
D|---------------------------------------------------------------------------|
A|--2--2-2--2-2--2-2--4-5--5-5--5-5--5-5--5------------------x1--------------|
E|---------------------------------------------------------------------------|


e|---------------------------------------------------------------------------|
B|---------------------------------------------------------------------------|
G|---------------------------------------------------------------------------|
D|---------------------------------------------------------------------------|
A|---------------------------------------------------------------------------|
E|--2--2-2--2-2--2-2--4-5--5-5--5-5--5-5--5----------------------------------|


e|---------------------------------------------------------------------------|
B|---------------------------------------------------------------------------|
G|---------------------------------------------------------------------------|
D|---------------------------------------------------------------------------|
A|--2--2-2--2-2--2-2--4-5--4-4--2-2--------------------------x1--------------|
E|----------------------------------5-5-4------------------------------------|



SOLO

e|------------------------5h7b-5---------------------------------------------|
B|---------------------5h7---------/7-5--------------------------------------|
G|------------------6h9------------------------------------------------------|
D|---------------7h9---------------------------------------------------------|
A|------------7h9-----------------------------------------x1-----------------|
E|-2--2-2--7h9---------------------------------------------------------------|

e|---------------------------------------------------------------------------|
B|---------------------------------------------------------------------------|
G|---------------------------------------------------------------------------|
D|--------------------(let ring and fast hammer on / pull off)-------x1------|
A|---------------------------------------------------------------------------|
E|-2--2-2-----5h7p5h7p5h7p5h7p5------------10---10-10--9--7----(bass finish)-|


e|---------------------------------------------------------------------------|
B|---------------------------------------------------------------------------|
G|---------------------------------------------------------------------------|
D|-----------------------------------------------------x1--------------------|
A|---------------------------------------------------------------------------|
E|-2--2-2----------(Alex start singing solo)---------------------------------|



WAIT WAIT WAIT 


e|---------------------------------------------------------------------------|
B|---------------------------------------------------------------------------|
G|---------------2-----------------------------------------------------------|
D|-----------2h4----4--2---------------------------x1------------------------|
A|--------2h4------------/5---5-5--4--2---2-2-0------------------------------|
E|-2--2-2--------------------------------------------------------------------|

e|---------------------------------------------------------------------------|
B|---------------------------------------------------------------------------|
G|---------------2-----2-----------------------------------------------------|
D|-----------2h4---2h4----------------------------x1-------------------------|
A|--------2h4------------/5---5-5--4--2----4---------------------------------|
E|-2--2-2-------------------------------5h7--5-------------------------------|

e|---------------------------------------------------------------------------|
B|---------------------------------------------------------------------------|
G|---------------2-----------------------------------------------------------|
D|-----------2h4----4--2---------------------------x1------------------------|
A|--------2h4------------/5---5-5--4--2---2-2-0------------------------------|
E|-2--2-2--------------------------------------------------------------------|

e|---------------------------------------------------------------------------|
B|---------------------------------------------------------------------------|
G|---------------------------------------------------------------------------|
D|-----------2h4---2h4-----------------------------------x1------------------|
A|--------2h4---2h4---2h4--/5---5-5--4--2---2-2-0----------------------------|
E|-2--2-2--------------------------------------------------------------------|


THE END


e|---------------------------------------------------------------------------|
B|---------------------------------------------------------------------------|
G|---------------------------------------------------------------------------|
D|---------------------------------------------------------------------------|
A|--------------------(listen for the rythm)-------------x2------------------|
E|-2-x16------5-x8----7-x8---------------------------------------------------|

e|---------------------------------------------------------------------------|
B|---------------------------------------------------------------------------|
G|---------------------------------------------------------------------------|
D|---------------------------------------------------------------------------|
A|-------------------------------------------------------x1------------------|
E|-2-x16------5-x8----7-x6----/12--------------------------------------------|

e|---------------------------------------------------------------------------|
B|---------------------------------------------------------------------------|
G|---------------------------------------------------------------------------|
D|---------------7-7---------------------------------------------------------|
A|------------7h9---9-7----5--5h7p5-------------9----9-----------------------|
E|-2--2-2--7h9----------9----------9--7--9--5--------------------------------|




************************************

| /   slide up
| \   slide down
| h   hammer-on
| p   pull-off
| ~   vibrato
| +   harmonic
| x   Mute note
| b   Bend
| pb  Pre-bend
| br  Bend release
| pbr Pre-bend release
| brb Bend release bend

************************************
Tap to rate this tab
 
# A B C D E F G H I J K L M N O P Q R S T U V W X Y Z