Song name
# A B C D E F G H I J K L M N O P Q R S T U V W X Y Z

Arctic Monkeys - R U Mine tab

-------------------------------------------------------------------------------
                             R U MINE? - Arctic Monkeys
-------------------------------------------------------------------------------
Tabbed by: A7XSGZV
Email: rather not

Tuning: Standard (EADGBe)

Intro:

Hit F# (9th fret A string) with heavy vibrato, drums, then...

e|------------------------------x3|--------------------------------x1|
B|--------------------------------|----------------------------------|
G|--------------------------------|----------------------------------|
D|--------------------------------|----------------------------------|
A|--------2h4-2h4-5--5-5-4-2-2/14-|--------2h4-2h4-5--5-5-4-2--2-2-0-|
E|-2--2-2-------------------------|-2--2-2---------------------------|

Verse 1:
e|--------------------------------------x2|--------------------------------------x1|
B|----------------------------------------|----------------------------------------|
G|----------------2-----------------------|----------------2-4---------------------|
D|------------2h4---4-2-------------------|------------2h4-----4-------------------|
A|--------2h4-----------5--5-5-4-2--2-2-0-|--------2h4-----------5--5-5-4-2--2-2-0-|
E|-2--2-2---------------------------------|-2--2-2---------------------------------|

e|--------------------------------------x1|
B|----------------------------------------|
G|----------------2-----------------------|
D|------------2h4---4-2-------------------|
A|--------2h4-----------5--5-5-4-2--2-2-0-|
E|-2--2-2---------------------------------|

Chorus 1:
e|---------------------------x3|----------------------------------------x1|
B|-----------------------------|------------------------------------------|
G|-----------------------------|-------------------------------------4--2-|
D|-----------------------------|------------2h4-----2h4--------------4--2-|
A|-----------5--5-5-4-2--2-2-0-|--------2h4-----2h4-----2h4-5--5-5-4-2--0-|
E|-2--2-2----------------------|-2--2-2-----------------------------------|

Verse 2:
e|--------|
B|--------|
G|--------|
D|-4--4-4-|
A|-4--4-4-|
E|-2--2-2-| then bass for 3x

On 4th time
e|-------------------|
B|-------------------|
G|-------------------|
D|-------------------|
A|-5--5-5-4-2--2-2-0-|
E|-------------------|

Then
e|--------------------------------------x4|
B|----------------------------------------|
G|----------------2-----------------------|
D|------------2h4---4-2-------------------|
A|--------2h4-----------5--5-5-4-2--2-2-0-|
E|-2--2-2---------------------------------|

Chorus 2:
e|-----------------x1|-------------------------x2|-----------------------------------------x1|
B|-------------------|---------------------------|-------------------------------------------|
G|-------------------|---------------------------|--------------------------------------9--6-|
D|-------------------|---------------------------|------------2h4-----2h4---------------9--6-|
A|-5--5-5-4-2--2-2-0-|---------5--5-5-4-2--2-2-0-|--------2h4-----2h4-----2h4-5--5-5-4--7--4-|
E|-------------------|-2--2-2--------------------|-2--2-2------------------------------------|

Break:
e|---------------------------------|
B|---------------------------------|
G|-4-444-444-444-6-7-777-777-777---|
D|-4-444-444-444-6-7-777-777-777-7-|
A|-2-222-222-222-4-5-555-555-555-7-|
E|-------------------------------5-|

e|-------------------------------------------------------------------|
B|-------------------------------------------------------------------|
G|-------------------------------------------------------------------|
D|-4-444-444-444-6-7-777-777-777-77-9-999-999-99-12xx11xx9xx7xx44-44-|
A|-4-444-444-444-6-7-777-777-777-77-9-999-999-99-12xx11xx9xx7xx44-44-|
E|-2-222-222-222-4-5-555-555-555-55-7-777-777-77-10xx9-xx7xx5xx22-22-|

Solo:
e|------------------------------------------------------------------------------------------|
B|-----------------7h10b12-pb12r10----------------------------------------------------------|
G|-------------6h9-----------------9b11-9---------------------------------------------------|
D|---------7h9------------------------------------------------------------------------44-44-|
A|-----7h9---------------------------------------------------------5--5-5-4-2-0-2-4-0-44-44-|
E|-7h9------------------------------------2--2-2-5h7p5h7p5h7p5h7p5--------------------22-22-|

Acapella 'verse'

Verse 3:
e|--------------------------------------------------------------------------------------|
B|--------------------------------------------------------------------------------------|
G|----------------2---------------------------------------------------------------------|
D|------------2h4---4-2------------------------------2h4-----2h4------------------------|
A|--------2h4-----------5--5-5-4-2--2-2-0--------2h4-----2h4-----2h4-5--5-5-4-2-0-2-4-0-|
E|-2--2-2---------------------------------2--2-2----------------------------------------|

e|-------------------------------------------------------------------------------------|
B|-------------------------------------------------------------------------------------|
G|----------------2--------------------------------------------------------------------|
D|------------2h4---4-2------------------------------2h4-----2h4-----------------------|
A|--------2h4-----------5--5-5-4-2--2-2-0--------2h4-----2h4-----2h4-5--5-5-4-2--2-2-0-|
E|-2--2-2---------------------------------2--2-2---------------------------------------|

Final Chorus:
e|---------------x1|-------------------x2|------------------------------------------------------|
B|-----------------|---------------------|------------------------------------------------------|
G|-----------------|---------------------|--------------2h4p2-----------------------------------|
D|-4-----7----9----|-4-----7----9--------|-4--------2h4-------4p2---------2---------------44-44-|
A|-4-x16-7-x8-9-x8-|-4-x16-7-x8-9-x5-----|-4-x4-2h4---------------4-5-5-5---5-4-2-4--4--0-44-44-|
E|-2-----5----7----|-2-----5----7----12\-|-2----------------------------------------------22-22-|

That's it. I hope you find this useful and accurate! Don't forget to rate!


************************************

| /   slide up
| \   slide down
| h   hammer-on
| p   pull-off
| ~   vibrato
| +   harmonic
| x   Mute note
| b   Bend
| pb  Pre-bend
| br  Bend release
| pbr Pre-bend release
| brb Bend release bend

************************************
Tap to rate this tab
 
# A B C D E F G H I J K L M N O P Q R S T U V W X Y Z