Song name
# A B C D E F G H I J K L M N O P Q R S T U V W X Y Z

Arctic Monkeys - R U Mine tab

Intro Riff
e|-------------------------------------------------|
B|-------------------------------------------------|
G|-------------------------------------------------|x3
D|-------------------------------------------------|
A|--4--4-4--------------------------/14------------|
E|--2--2-2----7/9-7/9--10--10-10-9-7---------------|

On fourth time play this:
e|----------------------------------------------|
B|----------------------------------------------|
G|----------------------------------------------|
D|----------------------7--7-7-6----------------|
A|--4--4-4--------------5--5-5-4-9--9-9-7-------|
E|--2--2-2----7/9-7/9------------7--7-7-5-------|

(Part A)
e|----------------------------------------------|
B|----------------------------------------------|
G|----------------------------------------------|x4
D|----------------7-------7--7-7-6--------------|
A|--4--4-4-----7-9---9-7--5--5-5-4-9--9-9-7-----|
E|--2--2-2-7-9---------------------7--7-7-5-----|
(Part B)
e|------------------------------------------------|
B|------------------------------------------------|
G|------------------------------------------------|x2
D|------------------------7--7-7-6----------------|
A|--4--4-4----------------5--5-5-4-9--9-9-7-------|
E|--2--2-2-------------------------7--7-7-5-------|
                                            (Part c)                                     
 I guess what i'm..
e|-------------------------------------------||
B|-------------------------------------------||
G|-------------------------------------------||
D|----------------------7--7-7-6-------------||
A|--4--4-4--4b----------5--5-5-4-9--9-9-7----||
E|--2--2-2-----------------------7--7-7-5----||

-----------------------------------------------|-------------|
-----------------------------------------------|-------------|
-----------------------------------------------|-------------|
----------------------------7--7-7-6-----------|-------------|
----4--4-4-----7-9-----7-9--5--5-5-4-9--9-9-7--|-4--4-4------|
----2--2-2--7-9-----7-9--------------7--7-7-5--|-2--2-2------|


Bass in verse

She's a silver lining....
e|---------------------------------------------|
B|---------------------------------------------|
G|---------------------------------------------|
D|---7--7-7-6----------------------------------|
A|---5--5-5-4-9--9-9-7-------------------------|
E|------------7--7-7-5-------------------------|

Part A x4

Are you mine? (Backing singing)

             e|---------------------------------------------|
             B|---------------------------------------------|
             G|---------------------------------------------|
             D|---7--7-7-6----------------------------------|
             A|---5--5-5-4-9--9-9-7-------------------------|
             E|------------7--7-7-5-------------------------|

Part B (once) to Part C (once)
                      And the thrill...
e|------------------------------------------------------------------------------------------|
B|------------------------------------------------------------------------------------------|
G|------------------------------------------------------------------------------------------|
D|---7--7-7-6--9---------------------------9------------------------------------------------|
A|---5--5-5-4--7---11--9----9-11-12-----12-7-4-----4-6-7-----7-8-9----9-11-12-11-9-7-4-4-4--|
E|-----------------9---7----7-9--10-----10---2-----2-4-5-----5-6-7----7-9--10-9--7-5-2-2-2--|

Solo
e|-----------------------------------------------------------------------------------|
B|--------------------7h10b12r10-----------------------------------------------------|
G|----------------6h9-----------9b11r9-----------------------------------------------|
D|------------7h9--------------------------------------------------------------------|
A|--------7h9--------------------------4--4-4-0h2-0h2-0h2-0h2-0h2--5-5-5-4-----------|
E|----7h9------------------------------2--2-2------------------------------7p5h7s9-5-|

Part A x4 then:
e|-----------------------------------------|
B|-----------------------------------------|
G|-----------------------------------------|
D|-----------------------------------------|x3
A|---4--(x16)-7-(x8)-9-(x8)----------------|
E|---2--------5------7---------------------|

e|-----------------------------------------|
B|-----------------------------------------|
G|-----------------------------------------|
D|-----------------------------------------|
A|------7-9-7-4----------------------------|
E|------5-7-5-2----------------------------|


Should be right, any problems mail me :) Enjoy.
Tap to rate this tab
 
# A B C D E F G H I J K L M N O P Q R S T U V W X Y Z