Song name
# A B C D E F G H I J K L M N O P Q R S T U V W X Y Z

Arctic Monkeys - Electricity tab

Electricity ~ Arctic Monkeys

Enjoy!


Intro and Verse 1
E|--------------------------------------------------------------|
B|--------------------------------------------------------------|
G|--------------------------------------------------------------|
D|--------------------------------------------------------------|
A|---------3/5--3---------3/5--3----------3/5--3---------3/5--3-|
E|--0--3/5---------0--3/5----------0--3/5---------0--3/5--------| x 6 


Chorus
E|----------------------------------------------------|
B|----------------------------------------------------|
G|----------------------------------------------------|
D|----------------------------------------------------|
A|----------------------------------------------------|
E|---5555--3333--1111--0000--5555--3333--1111--0000---| x2 


Verse 2
E|-----------------------------------|
B|-----------------------------------|
G|-----------------------------------|
D|-----------------------------------|
A|-----------3/5--3-----------3/5--3-|
E|---0--3/5-----------0--3/5---------| x 2

E|-----------------------------------|
B|-----------------------------------|
G|-----------------------------------|
D|-----------------------------------|
A|-----------------------------------|
E|--0-0-0--0-0-0--0-0-0--0-0-0-------| x 2 


Chorus
E|----------------------------------------------------|
B|----------------------------------------------------|
G|----------------------------------------------------|
D|----------------------------------------------------|
A|----------------------------------------------------|
E|---5555--3333--1111--0000--5555--3333--1111--0000---| x2 


Solo
E|----------------------------|
B|----------------------------|
G|----------------------------|
D|----------------------------|
A|----------------------------|
E|---5--3--1--0--5--3--1--0---| x2 


Verse 3
E|----------------------------|
B|----------------------------|
G|----------------------------|
D|----------------------------|
A|---------3333---------------|
E|---1111--------5555--5555---| x3

E|----------------------------|
B|----------------------------|
G|----------------------------|
D|----------------------------|
A|--55555555-66666666---------|
E|----------------------------|


Outro
E|-----------------------------------|
B|-----------------------------------|
G|-----------------------------------|
D|-----------------------------------|
A|-----------3/5--3-----------3/5--3-|
E|---0--3/5-----------0--3/5---------| x5
Tap to rate this tab
# A B C D E F G H I J K L M N O P Q R S T U V W X Y Z