Song name
# A B C D E F G H I J K L M N O P Q R S T U V W X Y Z

Arctic Monkeys - My Propeller tab

     
e|0-------3-------0---------0---------0-----------------------------|
B|0-------3-------1---------1---------1-----------------------------|
G|1--x4---0--x1---0---x4----2---x4----0---x4------------------------|
D|2-------0-------2---------2---------2-----------------------------|
A|2-------0-------3---------0---------3--------2---0----------------|
E|0-------3------------------------------------------------3----2---|


e|------------------------------------------------------------------|
B|------------------------------------------------------------------|
G|------------------------------------------------------------------|
D|------------------------------------------------------------------|
A|----------2------0----------------0-------2-----------------------|
E|-0---0--------0-----0-----3---3-------3-------3-------------------|
Tap to rate this tab
# A B C D E F G H I J K L M N O P Q R S T U V W X Y Z