Song name
# A B C D E F G H I J K L M N O P Q R S T U V W X Y Z

Arctic Monkeys - You And I tab

Seen this wasn't up, so tried my best and tabbed it out, my first tab so might not be accurate.

Main riff/intro:
|-------------|
|-------------|
|-------------|
|--3-3---3-6-6|
|--3-3---3-6-6|
|--1-1---1-4-4| (x20)

Chorus:
|-------------|
|-------------|
|-------------|
|-7------9----|
|-7(x12)-9(x4)|
|-5------7----| (x2)

Solo:
|-----------------------------------------------------------------------|
|----------14b14b14-12/9-11-14-12-9-7----------------9/12-14------------|
|-13/16-16----------------------------7-9--7-9-7-9-7---------12/9-7-5/3-|
|-----------------------------------------------------------------------|
|-----------------------------------------------------------------------|
|-----------------------------------------------------------------------|

-------------------------|
-/5-/7-/9-/12-/9-/12-/14-|
-------------------------|
-------------------------|
-------------------------|
-------------------------|
Tap to rate this tab
 
# A B C D E F G H I J K L M N O P Q R S T U V W X Y Z