Song name
# A B C D E F G H I J K L M N O P Q R S T U V W X Y Z

Arctic Monkeys - Come Together tab

-------------------------------------------------------------------------------
                             Come Together - Arctic Monkeys
-------------------------------------------------------------------------------
Tabbed by:Jack

This is a cover by the Arctic Monkeys of the Beatles song.
It was performed at the opening ceremony of the London 2012 
Olympics and the only really different thing is the solo so here goes:

Tuning: Standard

1st solo

e|-15b---15b-15b-13-15b----15b---15b-15b-13--------------------15b-----------|
B|-------------------------------------------15b---15b-15b-13----------------|
G|---------------------------------------------------------------------------|
D|---------------------------------------------------------------------------|
A|---------------------------------------------------------------------------|
E|---------------------------------------------------------------------------|


2nd solo

e|-------13b-13b-10--------------------------10-13b-10-----------------------|
B|13b----------------13b---------------13b--------------13b-------10-13b-10--|
G|--------------------------10-12b-10----------------------------------------|
D|---------------------------------------------------------------------------|
A|---------------------------------------------------------------------------|
E|---------------------------------------------------------------------------|

e|15b------13-15b-13-15b-----13-15b-13-15b----17-20b-17-20b----13-15b-13-15b-|
B|---------------------------------------------------------------------------|
G|---------------------------------------------------------------------------|
D|---------------------------------------------------------------------------|
A|---------------------------------------------------------------------------|
E|---------------------------------------------------------------------------|

**************
| b   Bend

**************
Tap to rate this tab
 
# A B C D E F G H I J K L M N O P Q R S T U V W X Y Z