Song name
# A B C D E F G H I J K L M N O P Q R S T U V W X Y Z

Arctic Monkeys - Cigarette Smoke tab

 ___________________________________________________________________________
|                              |Arctic  Monkeys|                            |
|------------------------------|Cigarette Smoke|----------------------------|
|___________________________________________________________________________|

I'm not entirely sure that this is "Cigarette smoke", or "Cigarette smoker Fiona",
however, I am positive that most of this is correct.
Enjoy!

Email: lewis.j.quinn@hotmail.com

Guitar 1- Alex Turner
Guitar 2- Jamie Cook

Standard Tuning: eBGDAE

/- Slide to.
~- vibrato

Intro:
Guitar 1.
e|---------------------------------|
B|---------------------------------|
G|---------------------------------|
D|-7-7-7--7-7-7--7-7-7--7-7-7/14-14|
A|-7-7-7--7-7-7--7-7-7--7-7-7/14-14|
E|-5-5-5--5-5-5--5-5-5--5-5-5/12-12|

Guitar 2.
e|------------------------------------------------------------------------|
B|------------------------------------------------------------------------|
G|------------------------------------------------------------------------|
D|------------------------------------------------------------------------|
A|------------------------------------------------------------------------|
E|------------------------------------------------------------------------|

Guitar 1.
e|--------------------------------|
B|--------------------------------|
G|--------------------------------| x2
D|-7-7-7---7-7-7---7-7-7---7-7-7--|
A|-7-7-7---7-7-7---7-7-7---7-7-7--|
E|-5-5-5---5-5-5---5-5-5---5-5-5--|

Guitar 2. (Play after Guitar 1 has played the three notes once.)
e|---------------------------------------------------------------------------|
B|---------------------------------------------------------------------------|
G|-------5-------5/7-5-----5-7--9/7/5----------------------------------------|
D|------7-------7-------5-7--------------------------------------------------|
A|---------------------------------------------------------------------------|
E|---------------------------------------------------------------------------|

Verse 1:
Guitar 1. (Guitar 2 does nothing here.)
e|----------------------------|
B|----------------------------|
G|----------------------7-7-7-| x4
D|-7-7-7--7-7-7--3-3-3--7-7-7-|
A|-7-7-7--7-7-7--3-3-3--5-5-5-|
E|-5-5-5--5-5-5--1-1-1--------|

Chorus:
Guitar 1&2.
e|------------------------------------------------------------------------|
B|------------------------------------------------------------------------|
G|-----------------5-5-5-5-5-5-5-5-9-9-9-9-9-9-9-9-9-7-9-12-9-7-----------|
D|-7-7-7-7-7-7-7-7-5-5-5-5-5-5-5-5-9-9-9-9-9-9-9-9-9-7-9-12-9-7-----------|
A|-7-7-7-7-7-7-7-7-3-3-3-3-3-3-3-3-7-7-7-7-7-7-7-7-7-5-7-10-7-5-----------|
E|-5-5-5-5-5-5-5-5--------------------------------------------------------|

Guitar 1&2.
e|------------------------------------------------------------------------|
B|-----------------5-5-5-5-5-5-5-5/9--------------------------------------|
G|-7-7-7-7-7-7-7-7-5-5-5-5-5-5-5-5/9--------------------------------------|
D|-7-7-7-7-7-7-7-7-3-3-3-3-3-3-3-3/7--------------------------------------|
A|-5-5-5-5-5-5-5-5--------------------------------------------------------|
E|------------------------------------------------------------------------|

Guitar 2.
e|----------------------------------------------------|
B|----------------------------------------------------| Play this after the
G|----------------------------------------------------| single 7th fret.
D|-------------------------------------------5--------|
A|-------------------------------------7-5-7---7-5----|
E|----------------------------------------------------|

Bridge 1:
Guitar 1.
e|-----------------------------------------------------------------|
B|-----------------------------------------------------------------|
G|-----------------------------------------------------------------|
D|-7-7-7---7-7-7---7-7-7---7-7-7---7-7-7---7-7-7---7-7-7---7-7-7---|
A|-7-7-7---7-7-7---7-7-7---7-7-7---7-7-7---7-7-7---7-7-7---7-7-7---|
E|-5-5-5---5-5-5---5-5-5---5-5-5---5-5-5---5-5-5---5-5-5---5-5-5---|

Guitar 2.
e|----------------------------------------------------------------------|
B|----------------------------------------------------------------------|
G|---------------5/7-5-----5-7--9/7/5----5-------5/7-5------5-7--5-7-0--|
D|--------------7-------5-7-------------7-------7-------5-7-------------|
A|------6/7-------------------------------------------------------------|
E|----------------------------------------------------------------------|

Verse 2:
Guitar 1.
e|----------------------------|
B|----------------------------|
G|----------------------7-7-7-| x4
D|-7-7-7--7-7-7--3-3-3--7-7-7-|
A|-7-7-7--7-7-7--3-3-3--5-5-5-|
E|-5-5-5--5-5-5--1-1-1--------|

Chorus:
Guitar 1&2.
e|------------------------------------------------------------------------|
B|------------------------------------------------------------------------|
G|-----------------5-5-5-5-5-5-5-5-9-9-9-9-9-9-9-9-9-7-9-12-9-7/0~--------|
D|-7-7-7-7-7-7-7-7-5-5-5-5-5-5-5-5-9-9-9-9-9-9-9-9-9-7-9-12-9-7/0~--------|
A|-7-7-7-7-7-7-7-7-3-3-3-3-3-3-3-3-7-7-7-7-7-7-7-7-7-5-7-10-7-5/0~--------|
E|-5-5-5-5-5-5-5-5--------------------------------------------------------|

Bass solo!

Bridge 2:
Guitar 1.
e|------------------------------------------------------------------------|
B|------------------------------------------------------------------------|
G|-----------------5-5-5-5-5-5-5-5-9-9-9-9-9-9-9-9-9-9-9-9-9-9-9-9--------|
D|-7-7-7-7-7-7-7-7-5-5-5-5-5-5-5-5-9-9-9-9-9-9-9-9-9-9-9-9-9-9-9-9--------|
A|-7-7-7-7-7-7-7-7-3-3-3-3-3-3-3-3-7-7-7-7-7-7-7-7-7-7-7-7-7-7-7-7--------|
E|-5-5-5-5-5-5-5-5--------------------------------------------------------|

Guitar 1.
e|-----------------------------------------------|
B|-----------------------------------------------|
G|-----------------5-5-5-5-5-5-5-5-9~---9999-----|
D|-7-7-7-7-7-7-7-7-5-5-5-5-5-5-5-5-9~---9999-----|
A|-7-7-7-7-7-7-7-7-3-3-3-3-3-3-3-3-7~---7777-----|
E|-5-5-5-5-5-5-5-5-------------------------------|

^There is a tricky strumming pattern here which sounds better when played.

Chorus:
Guitar 1&2.
e|------------------------------------------------------------------------|
B|------------------------------------------------------------------------|
G|-----------------5-5-5-5-5-5-5-5-9-9-9-9-9-9-9-9-9-7-9-12-9-7-----------|
D|-7-7-7-7-7-7-7-7-5-5-5-5-5-5-5-5-9-9-9-9-9-9-9-9-9-7-9-12-9-7-----------|
A|-7-7-7-7-7-7-7-7-3-3-3-3-3-3-3-3-7-7-7-7-7-7-7-7-7-5-7-10-7-5-----------|
E|-5-5-5-5-5-5-5-5--------------------------------------------------------|

Guitar 1&2.
e|------------------------------------------------------------------------|
B|------------------------------------------------------------------------|
G|-----------------5-5-5-5-5-5-5-5-9-9-9-9-9-9-9-9------------------------|
D|-7-7-7-7-7-7-7-7-5-5-5-5-5-5-5-5-9-9-9-9-9-9-9-9-------5----------------|
A|-7-7-7-7-7-7-7-7-3-3-3-3-3-3-3-3-7-7-7-7-7-7-7-7-7-5-7---7--5-----------|
E|-5-5-5-5-5-5-5-5--------------------------------------------------------|

Guitar 1&2.
e|---------------------------------------------------------------|
B|---------------------------------------------------------------|
G|-----------------5-5-5-5-5-5-5-5-9-9-9-9-9-9-9-9-9-9-9-9-9-9---| x2
D|-7-7-7-7-7-7-7-7-5-5-5-5-5-5-5-5-9-9-9-9-9-9-9-9-9-9-9-9-9-9---|
A|-7-7-7-7-7-7-7-7-3-3-3-3-3-3-3-3-7-7-7-7-7-7-7-7-7-7-7-7-7-7---|
E|-5-5-5-5-5-5-5-5-----------------------------------------------|

Outro:
Guitar 1.
e|---------------|
B|---------------|
G|---------------| x3
D|-------5-------|
A|-7-5-7---7-5---|
E|---------------|
Tap to rate this tab
# A B C D E F G H I J K L M N O P Q R S T U V W X Y Z