Song name
# A B C D E F G H I J K L M N O P Q R S T U V W X Y Z

Arctic Monkeys - Do I Wanna Know tab

Arctic Monkeys-Do I wanna know?

Tabbed by Tim Van de Voorde

New song by Arctic Monkeys, I made this tab only by ear and very fast. There’s just 1 
live version on youtube for this moment, so if I have a better version, I will upgrade the tab!

E|--------------------------------------------------------------|
B|--------------------------------------------------------------|
G|--------------------------------------------------------------|
D|--------------------------------------------------------------|
A|------------6/8-6~--5--3~------5--3~-----5--3-----------------|
E|-3~--3-3-3h6------------------6-------6-6------3~---6h8/10-3~-|

E|------------------------------------------------------------------|
B|------------------------------------------------------------------|
G|------------------------------------------------------------------|
D|------------------------------------------------------------------|
A|------------6/8-6~--5--3~---/5~--/10~--6~-3-5-6-5-3---------------|
E|-3~--3-3-3h6---------------------------------------6-3--6h8/10-3~-|

Tabbed by Tim Van de Voorde
Tap to rate this tab
# A B C D E F G H I J K L M N O P Q R S T U V W X Y Z