Song name
# A B C D E F G H I J K L M N O P Q R S T U V W X Y Z

Arctic Monkeys - Do I Wanna Know tab

Tabbed by ear and from watching live videos of the show in The Ventura Theatre (22/5/13) 

Alex Turner's guitar line: 

E|-------------------------------------------------------|
B|-------------------------------------------------------|
G|-------------------------------------------------------|
D|--------------------3--1--0----------0----------0-0----|  x 5
A|------1-----------1---------3----1-3---3----1h3--------|
E|---1h3--3------1h3-----------------------------------3-|

E|-------------------------------------------------------|
B|-------------------------------------------------------|
G|-------------------------------------------------------|
D|--------------------3--1--0----------0----------5/1----|  
A|------1-----------1---------3----1-3---3----5----------|
E|---1h3--3------1h3-------------------------------------|

E|-------------------------------------------------------|
B|-------------------------------------------------------|
G|-------------------------------------------------------|
D|----------------------------0--------------------------|  
A|----3h5--6-5-3---1-3----1-3----------------------------|
E|-----------------------------3-------------------------|

E|-------------------------------------------------------|
B|-------------------------------------------------------|
G|-------------------------------------------------------|
D|---------------5/1------------------------------0------|
A|------1----------------3h5---6-5-3----1-3---1-3--------|
E|---1h3--3----------------------------------------3----3|


Chorus

E|-------------------------------------------------------|
B|-------------------------------------------------------|
G|-------------------------------------------------------|
D|--------------------3--1--0----------0----------0-0----|  x 2
A|------1-----------1---------3----1-3---3----1h3--------|
E|---1h3--3------1h3-----------------------------------3-|


Verse 2

No guitar, just bass for a while, then:

E|-------------------------------------------------------|
B|-------------------------------------------------------|
G|-------------------------------------------------------|
D|--------------------3--1--0----------0----------0-0----|  
A|------------------1---------3----1-3---3----1h3--------|
E|--------3------1h3-----------------------------------3-|

E|-------------------------------------------------------|
B|-------------------------------------------------------|
G|-------------------------------------------------------|
D|--------------------3--1--0----------0---------5/1-----|  
A|------------------1---------3----1-3---3----5----------|
E|--------3------1h3-------------------------------------|

E|-------------------------------------------------------|
B|-------------------------------------------------------|
G|-------------------------------------------------------|
D|----------------------------0--------------------------|  
A|----3h5--6-5-3---1-3----1-3----------------------------|
E|-----------------------------3-------------------------|

E|-------------------------------------------------------|
B|-------------------------------------------------------|
G|-------------------------------------------------------|
D|---------------5/1------------------------------0------|
A|------1----------------3h5---6-5-3----1-3---1-3--------|
E|---1h3--3----------------------------------------3-----|


E|-------------------------------------------------------|
B|-------------------------------------------------------|
G|-------------------------------------------------------|
D|-------------------------------------------------------|  
A|------1------------------------------------------------|
E|---1h3--3----------------------------------------------|


Chorus

E|-------------------------------------------------------|
B|-------------------------------------------------------|
G|-------------------------------------------------------|
D|--------------------3--1--0----------0----------0-0----|  x 2
A|------1-----------1---------3----1-3---3----1h3--------|
E|---1h3--3------1h3-----------------------------------3-|

E|-------------------------------------------------------|
B|-------------------------------------------------------|
G|-------------------------------------------------------|****
D|-----5/1---------------------------------0-------------|
A|--------------3h5---6-5-3----1-3---1-3-----------------|
E|-------------------------------------------3-----------|

E|-------------------------------------------------------|
B|-------------------------------------------------------|
G|-------------------------------------------------------|
D|---------------5/1------------------------------0------| x3
A|------1----------------3h5---6-5-3----1-3---1-3--------|
E|---1h3--3----------------------------------------3-----|

E|-------------------------------------------------------|
B|-------------------------------------------------------|
G|-------------------------------------------------------|
D|-------0-------------------0---------------0-----------|  
A|---1h3-----------------1h3--------------1h3------------|
E|--------3-------3r----------3------3r-------3----3r--3~|




**** - At this point Jamie's guitar comes in with:


E|-------------------------------------------------------|
B|-------------------------------------------------------|
G|----15/12--14-12-14-15-17-14-15------------------------|(repeated till end)
D|-------------------------------------------------------|  
A|-------------------------------------------------------|
E|-------------------------------------------------------|
Tap to rate this tab
# A B C D E F G H I J K L M N O P Q R S T U V W X Y Z