Song name
# A B C D E F G H I J K L M N O P Q R S T U V W X Y Z

Arctic Monkeys - Suck It And See tab

None of these are my own, I just thought it'd be easier to compile them all.
Thanks to;
Xnimez
elliotsmith101
sizifparanoja
Rickyske
GuitarTom1995
Manc Audience
Kenubinin
jackpowell1024
arcticmonkeys24
arielak
Harm Pauwels
jonnopne
Now for the tabs!

She's Thunderstorms

So I’m just gonna tab out Alex’s part for the song and make chords for Jamie’s part at 
the very bottom.

Intro:
e|----------------------------------|
B|---0---0---0---0---4---3---0---3--|
G|-4---4---4---4---5---5---5---5----|
D|----------------------------------|x3
A|----------------------------------|
E|----------------------------------|

e|----------------------------------|
B|---0---0---0---0---3---0---3---0--|
G|-4---4---4---4---5---5---5---5----|
D|----------------------------------|
A|----------------------------------|
E|----------------------------------|

Chorus:
e|----------------------------------|
B|---3---0---0---0---3---0---3---0--|
G|-----------------5---5---5---5----|
D|-5---5---5---5--------------------|x2
A|----------------------------------|
E|----------------------------------|

e|----------------------------------|
B|---3---0---3---0---3---0---0---0--|
G|-5---5---5---5---2---2---2---2----|
D|----------------------------------|
A|----------------------------------|
E|----------------------------------|

e|----------------------------------|
B|---3---5---3---0---3---0---0---0--|
G|-5---5---5---5---2---2---2---2----|
D|----------------------------------|
A|----------------------------------|
E|----------------------------------|

e|------------------|
B|---0---0---0---0--|
G|-0---0---0---0----|
D|------------------|repeat till verse
A-------------------|
E|------------------|

Verse:
e|------------------------------------------|
B|----10----12----10----10---8---0---0---0--|
G|-12----12----12----12----9---9---9---9----|
D|------------------------------------------|
A|------------------------------------------|
E|------------------------------------------|

e|------------------------------------------|
B|---8---8---7---8----10----10----10----10--|
G|-9---9---9---9---11----11----11----11-----|
D|------------------------------------------|
A|------------------------------------------|
E|------------------------------------------|

e|------------------------------------------|
B|----10----12----10----10---8---0---0---0--|
G|-12----12----12----12----9---9---9---9----|
D|------------------------------------------|
A|------------------------------------------|
E|------------------------------------------|

e|------------------------------------------|
B|---8---8---7---8----10----12----10----10--|
G|-9---9---9---9---11----11----11----11-----|
D|------------------------------------------|x3
A|------------------------------------------|
E|------------------------------------------|

e|----------------------------------|
B|---7---7---7---7---7---0---0---0--|
G|-7---7---7---7---9---9---9---9----|
D|----------------------------------|
A|----------------------------------|
E|----------------------------------|

e|-------------------------------------------|
B|---8---8---7---8----10----10----10----10---|
G|-9---9---9---9---11----11----11----11------|
D|-------------------------------------------|
A|-------------------------------------------|
E|-------------------------------------------|

Repeat chorus like before but play this before
e|------------------|
B|-4-4-4-4-4-4-4-4--|
G|-5-5-5-5-5-5-5-5--|
D|------------------|
A|------------------|
E|------------------|

Verse 2: When guitar comes in
e|----------------------------------|
B|---7---7---7---7---7---0---0---0--|
G|-7---7---7---7---9---9---9---9----|
D|----------------------------------|
A|----------------------------------|
E|----------------------------------|

e|-------------------------------------------|
B|---8---8---7---8----10----12----10----10---|
G|-9---9---9---9---11----11----11----11------|
D|-------------------------------------------|
A|-------------------------------------------|
E|-------------------------------------------|

Chorus repeats again

“In an unusual place…”
This part Jamie hits the first chord and Turner hits the second
e|------2------3------2------3--|
B|------3------4------3------4--|
G|------4------5------4------5--|
D|------4------5------4------5--|
A|------2------3------2------3--|
E|------------------------------|

e|-0--------2------|
B|-1--------3------|
G|-2--------2-[x6]-|
D|-2-[x6]---0------| x2
A|-0---------------|
E|-----------------|

Solo:
e|---------------------------------|
B|---------------------------------|
G|-4b5--8-7b8--12-11b12--16-14b16--|
D|---------------------------------|
A|---------------------------------|
E|---------------------------------|

e|---------------------------------------|
B|---------------------------------------|
G|-4b5--7/8\7--5--7----------------------|
D|---------------------------------------|
A|---------------------------------------|
E|---------------------------------------|

e|---------------------------------------|
B|---------------------------------------|
G|-/16--16b17r16-14--12--16--14----------|
D|---------------------------------------|
A|---------------------------------------|
E|---------------------------------------|

e|---------------------------------------|
B|---------------------------------------|
G|-/16--16-14--12--16--14--12--14--------|
D|---------------------------------------|
A|---------------------------------------|
E|---------------------------------------|

Chorus 3:
e|---------------------------------------------------|
B|---------------------------------------------------|
G|-12b13r12-----12b13r12----7-8--7--4-2---4-5-4---2--|
D|---------------------------------------------------|
A|---------------------------------------------------|
E|---------------------------------------------------|

e|--------|
B|--------|
G|--------|
D|-5b7r5--| repeat til end, end on a 5
A|--------|
E|--------|


G5

Cm                    G5
She's Thunderstorms,
Cm                  A5
Lying on her front,
D5                     A5
Up against the wall,
D5                       G5
She's Thunderstorms,

G5

G               Em
I've been feeling foolish,
Am                D
You should try it,
G                       Em
She came and substituted,
Am                    D
the peace and quiet,
Am          D                  Am      D
for acrobatic blood, flow, concertina
Bm            Em
Cheating heartbeat,
Am        D
Rapid fire.

Cm G5

Cm                    G5
She's Thunderstorms,
Cm                  A5
Lying on her front,
D5                     A5
Up against the wall,
D5                       G5
She's Thunderstorms,
Cm                        G5
Hear who's your host,
             Cm                         A5
Sounds as if she's pretty close,
                     D5                                  A5
When the heat starts growing horns,
D5                       G
She's Thunderstorms.

(no guitar but the chords from verse 1 will work)
She's been loop the looping,
Around my mind,
Her motorcycle boots,
Give me this kind of acrobatic blood, concertina,
Bm       Em          Am
Cheating heartbeat,
      D
Rapid fire,

Cm G5

Cm                    G5
She's Thunderstorms,
Cm                  A5
Lying on her front,
D5                     A5
Up against the wall,
D5                 Bm      Cm      Bm
She's Thunderstorms, in an unusual place,
            Cm                   Am     D
When you're feeling far away,
                             Am          D
She does what the night does to the day.

G5 Cm G5 Cm A5 D5 A5 D5 G5

Cm                    G5
She's Thunderstorms,
Cm                  A5
Lying on her front,
D5                     A5
Up against the wall,
D5                       G5       Cm
She's Thunderstorms,
               G5      Cm
Thunderstorms,
               G5      Cm
Thunderstorms,

G5 Cm

G (let ring)











************************************

| /   slide up
| \   slide down
| h   hammer-on
| p   pull-off
| ~   vibrato
| +   harmonic
| x   Mute note
| b   Bend
| pb  Pre-bend
| br  Bend release
| pbr Pre-bend release
| brb Bend release bend

************************************

Black Treacle

Black Treacle Chords

VERSE

G G     G G        G G     G G
Lately i've been seeing things
G G    G G     D D  C C     C C     G G      G G    D D
Belly button piercings, in the sky, at night
D D         C C      C C    G G
When we're side by side
    G G      G G      G G
And i don't mean to rain
   G G  D D   D D  C C
on anybodys caboret
C C           G G
One of those games
       G G    D D
you're gonna lose
        D D    C C      C C     G G
but you wanna play it just incase

CHORUS
                 C
Now it's getting dark
        D         G 
and the sky looks sticky
                    C         D   G
more like black treacle than tar
          C
Black treacle,
     D   G        A               Cm                 G
somebody told the stars you're not coming out tonight
        Cm                    G D Em C
So they find a place to hide


Does it help you stay up late
Does it help you concentrate,
Does it tune you in, when you chew your chin?
Am i ruining your fun?

And you talk the talk alright
but do you walk the walk, or catch the train?
You wanted it, you got it
But you don't want it now

Now it's getting dark
and the sky looks sticky
more like black treacle than tar
Black treacle
somebody told the starts you're not coming out tonight
so they found a place to hide

MIDDLE
               C
Now i'm out of place
            D           G
and i'm not getting any wiser
                C
I feel like the sundance kid,
   D             G
behind the synthesiser
      Em
And i tried last night
   C             D
to pack away the laugh
       G             Cm
like a key under the mat
         C              D
but it's never seems to be there
         [ G D Em C ] to end
when you want it

Black treacle
Black treacle
Black treacle 

Brick By Brick

Intro: 

gt.1 and gt.2

   E  G   G    E
e ------|-----------------|
b ------|-----------------|
g --1-4-|-4-4-4-1-1-1-----|
d --2-5-|-5-5-5-2-2-2-----|   repeat
a --2-5-|-5-5-5-2-2-2-----|
E --0-3-|-3-3-3-0-0-0-x-x-|

Chorus:

gt.1

e ------------------------------------|
b -------10-10-------10-10------------|
g -12-12-------12-12-------12-9-9-9-9-|
d ------------------------------------| 4x 
a ------------------------------------|
E ------------------------------------|

gt.2

    A     G     E
e ------------------------------------|
b ------------------------------------|
g --6-6---4-4---1-1-1-1-1-1-----------|
d --7-7---5-5---2-2-2-2-2-2-----------| 4x
a --7-7---5-5---2-2-2-2-2-2-----------|
E --5-5-x-3-3-x-0-0-0-0-0-0-----------|

gt.1
e -------------------------------------------------------------|------|
b --10---------------10-------------10------12-11-10-9---------|------|
g -----12-9-9-9-9-------12-9-9-9-9---------------------12-11-10|----4-|
d -------------------------------------------------------------|--2-5-|
a -------------------------------------------------------------|--2-5-|
E -------------------------------------------------------------|--0-3-|

gt.2

   A G E             A G E          A   
e --------------------------------------|
b --------------------------------------|
g --6-3-1--1-1-1-----6-4-1--1-1-1----6--|
d --7-5-2--2-2-2-----7-5-2--2-2-2----7--|
a --7-5-2--2-2-2-----7-5-2--2-2-2----7--|
E --5-3-0--0-0-0-----5-3-0--0-0-0----5--|





Break:

gt.1 (gt.2 plays Intro chords)

e --------------------------------------------------------------------------|
b --12--------------------------15b17--15b17-12-----------------------------|
g --14b15-14b16---14b16p12---12---------------------14p12h14--14b16p12------|
d ------------------------14----------------------14-------------------14-12|
a --------------------------------------------------------------------------|
E --------------------------------------------------------------------------|

e -------------------|
b ---------12--------|
g -----12-----12-----|
d --14-----------14--|
a -------------------|
E -------------------|

gt.2 plays Intro chords

Chorus 2. 


Break 2:

gt.1  (gt.2 plays Intro chords)

e ---------------------|-----------------------|-----------------|
b ---------------------|-15b17r15--12----------|-----------------|
g -9-9~----------------|--------------13-12----|-----------------|
d ------7~-------------|-----------------------|-----7b9r7-------|
a ---------5s7s5s7s5s7-|-----------------------|-----------5s7s5~|
E ---------------------|-----------------------|-----------------|



Chorus 3. (This is played till the end)

The Hellcat Spangled Shalalala

INTRO

e|------------------------------------------------|
B|----12----12----12----12----12----12----12------|
G|-13----13----13----13----13----13----13----13---|
D|------------------------------------------------|
A|------------------------------------------------|
E|------------------------------------------------|

e|------------------------------------| (x6)
B|-11-------9-----11------------------|
G|------11----11------11--------------|
D|------------------------------------|
A|------------------------------------|
E|------------------------------------|

e|--------------------------------------------------------------------|
B|-11-----9------11------9--------------7-------9-------7-----11~ ----|
G|-----11----11------11--------8----8-------8-------8---------11~ ----|
D|--------------------------------------------------------------------|
A|--------------------------------------------------------------------|
E|--------------------------------------------------------------------|


VERSE 1

e|------------------------------|
B|---16/12----------------12----|
G|------------------------------|
D|---------------------13-------|
A|------------------------------|
E|------------------------------|

CHORUS 1

e|-12-------------12-------------12-----------|
B|-15b17b15-------15b17b15-------15b17b15-----|
G|--------------------------------------------|
D|--------------------------------------------|
A|--------------------------------------------|
E|--------------------------------------------|

e|-----------------------------------------------------------|
B|----12----12----12----12----12----12----12----12-----11~ --|
G|-13----13----13----13----13----13----13----13----13--11~ --|
D|-----------------------------------------------------------|
A|-----------------------------------------------------------|
E|-----------------------------------------------------------|

VERSE 2

e|-11--------------------|   (x4)
B|----12-14-12-----------|
G|-------------15-13-----|
D|-----------------------|
A|-----------------------|
E|-----------------------|


CHORUS 2

e|-12-------------12-------------12-----------|
B|-15b17b15-------15b17b15-------15b17b15-----|
G|--------------------------------------------|
D|--------------------------------------------|
A|--------------------------------------------|
E|--------------------------------------------|


e|----------------------------------------------------|
B|----12----12----12----12----12----12----12----12----|
G|-13----13----13----13----13----13----13----13----13-|
D|----------------------------------------------------|
A|----------------------------------------------------|
E|----------------------------------------------------|

e|-------------------------------|
B|12----12----12----12-----11~ --|
G|---13----13----13----13--11~ --|
D|-------------------------------|
A|-------------------------------|
E|-------------------------------|

OUTRO


e|----14-----12-----11----9----7----9-----11-----12-----14-----12----9----7--
B|-16-----14-----12-----9----7----9----12-----14-----16-----14-----9----7----
G|---------------------------------------------------------------------------
D|---------------------------------------------------------------------------
A|---------------------------------------------------------------------------
E|---------------------------------------------------------------------------

e|--9-----11-----12-----14-----12-----11----9----7----|
B|9----12-----14-----16-----14-----12-----9----7------|
G|----------------------------------------------------|
D|----------------------------------------------------|
A|----------------------------------------------------|
E|----------------------------------------------------|

e|-11---11-11-11-11--12--14---14-14-14-14--12--11---11-11-11-11--12--14---|
B|-12---12-12-12-12--14--16---16-16-16-16--14--12---12-12-12-12--14--16---|
G|------------------------------------------------------------------------|
D|------------------------------------------------------------------------|
A|------------------------------------------------------------------------|
E|------------------------------------------------------------------------|

e|14-14-14-14--12--11-11-11-11-11-11-11-10-10-10-10-10-10-10-10-|
B|16-16-16-16--14--12-12-12-12-12-12-12-12-12-12-12-12-12-12-12-|
G|--------------------------------------------------------------|
D|--------------------------------------------------------------|
A|--------------------------------------------------------------|
E|--------------------------------------------------------------|

e|----14----12-----11----9-----11------14-----12-----11----9-----11---|
B|-16-----14----12-----9----12------16-----14------12-----9----12-----|
G|--------------------------------------------------------------------|
D|--------------------------------------------------------------------|
A|--------------------------------------------------------------------|
E|--------------------------------------------------------------------|

e|------------------------------------------|
B|---12----12----12----12----12----12----12-|
G|-13----13----13----13----13----13----13---|
D|------------------------------------------|
A|------------------------------------------|
E|------------------------------------------|

e|--11-----------11-----|  (x11)
B|-----12-14-12-----12--|  Until Finish
G|----------------------|
D|----------------------|
A|----------------------|
E|----------------------|

Don't Sit Down Cause I've Moved Your Chair

 Intro                         Riff 1         
e:-----------------------------|------------------------------|     
b:-----------------------------|------------------------------|     
g:-----2------2------2---2-2-2-|------2------2------2---2-2-2-|        
D:-0-0-2-0--0-2-0--0-2-0-3-2-1-|-0--0-2-0--0-2-0--0-2-0-3-2-1-|  X8
A:-----------------------------|------------------------------|         
D:-----------------------------|------------------------------| 

  Riff 2                        Riff 3
e:--------------------------|  |------------------------------|
b:--------------------------|  |------------------------------|
g:------2------2------2---2-|  |------------------------------|
D:-0--0-2-0--0-2-0--0-2-0-3-|  |-0--0-2-0--0-2-0--0-2-0-3-2-1-|  X11
A:--------------------------|  |-0--0-2-0--0-2-0--0-2-0-3-2-1-|
D:--------------------------|  |-0--0-2-0--0-2-0--0-2-0-3-2-1-|
                                   (with riff 1 X11 played 
                                       simultaneously).

  Riff 4                        Riff 5
e:--------------------------|  |----------------------------------|
b:--------------------------|  |----------------------------------|     
g:--------------------------|  |-2--2-2--2-2-2-2--7--7-7--7-7-7-7-|  
D:-0--0-2-0--0-2-0--0-2-0-3-|  |-3--3-3--3-3-3-3--8--8-8--8-8-8-8-|
A:-0--0-2-0--0-2-0--0-2-0-3-|  |-3--3-3--3-3-3-3--8--8-8--8-8-8-8-|  
D:-0--0-2-0--0-2-0--0-2-0-3-|  |-3--3-3--3-3-3-3--8--8-8--8-8-8-8-|  
   (with riff 2 played          (Alex's guitar maybe in E standard
     simultaneously).            so he could be playing F and A#
                                 chords on E,A,D,g strings, while
                                 Jamie plays the above without the
                                 '2' and '7' on the g string).


  Riff 6 (Guitar 1)             Riff 6 (Guitar 2)
e:---------------------------| |---------------------------|     
b:---------------------------| |---------------------------|      
g:---------------------------| |-----2-------2-------2---2-|   
D:-0-0-2-0-0-0-2-0-0-0-2-0-3-| |-0-0-2-0-0-0-2-0-0-0-2-0-3-|  
A:-0-0-2-0-0-0-2-0-0-0-2-0-3-| |---------------------------|      
E:-0-0-2-0-0-0-2-0-0-0-2-0-3-| |---------------------------|    


  - Riff 5

  - Riff 6


e:------------------------------------------------------------------------|
b:------------------------------------------------------------------------|
g:-/10^------------------------------------------------7------------------|
D:------------<12>------------<12>--12-----------7-----7-------7^(r)7^(r)-|
A:-----------------------------------------------x-----5------------------|
D:-----------------------------------------------0------------------------|
  

  - Riff 5

  - Riff 6 

  - Riff 5 

  - Riff 6 (Solo begins)

  - Riff 5

  - Riff 6

  - Riff 5


  Riff 7 (Guitar 1)
e:----------------------------------------------------------|
b:----------------------------------------------------------|
g:----------------------------------------------------------|
D:-0--0-2-0--0-2-0--0-2-0--0-2-0--0-2-0--0-2-0--0-2-0-3-2-1-|  X2
A:-0--0-2-0--0-2-0--0-2-0--0-2-0--0-2-0--0-2-0--0-2-0-3-2-1-|
D:-0--0-2-0--0-2-0--0-2-0--0-2-0--0-2-0--0-2-0--0-2-0-3-2-1-|


  Riff 7 (Guitar 2)
e:----------------------------------------------------------|
b:----------------------------------------------------------|
g:------2------2------2------2------2------2------2---2-2-2-|
D:-0--0-2-0--0-2-0--0-2-0--0-2-0--0-2-0--0-2-0--0-2-0-3-2-1-|  X2
A:----------------------------------------------------------|
D:----------------------------------------------------------|


  Solo (02:28-03:04)
e:-----------------------------------------------------------------|
b:-----------------------------------------------------------------|
g:-2---2--2-2-2/10-10-10/-2-2/10-10-10--10-10/-2-2/10-10--10-10/-2-|
D:-----------------------------------------------------------------|
A:-----------------------------------------------------------------|
D:-----------------------------------------------------------------|

e:-----------------------------------------------------------------|
b:--------------------------------------------1-3/5/3-1-3-3p1---1/-|
g:-/12-12p10-/12-12p10-12/10-12/14-12/10--2-2-----------------2----|
D:-----------------------------------------------------------------|
A:-----------------------------------------------------------------|
D:-----------------------------------------------------------------|

e:----------------------------------------------------------------|
b:-13^------------------------------------------------------------|
g:-------/7--/10--/7--/10--/7--/10--/7--10/--/7--/13--/7--/13--/7-|
D:----------------------------------------------------------------|
A:----------------------------------------------------------------|
D:----------------------------------------------------------------|

e:--------------|
b:--------------|
g:-/13--/7--/13-|
D:--------------|
A:--------------|
D:--------------|


   Lyrics:

Break a mirror roll the dice, 
  Run with scissors through a chip pan fire fight.
Go into business with a grizzly bear, 
  But just don't sit down 'cause I've moved your chair.

Find a well known hardman and start a fight, 
  Wear your shell suit on bonfire night.
Fitting a circular hole with a peg that's square, 
  But just don't sit down 'cause I've moved your chair.

  Ohhhh yeah yeah yeah

Bite the lightning and tell me how it tastes, 
  Kung fu fighting on your roller skates, 
Do the macerana in the devils lair
  But just don't sit down 'cause I've moved your chair.

  Ohhhh yeah yeah yeah

Library Pictures

Pretty much all right, uploaded the solo to a solo type tab.
Fair bit of syncopation at points.
Think Alex plays these parts mostly. Think he plays the solos parts at some points 
though. Not really sure.

0.16
e|----|
B|----|
G|----|
D|----|
A|----|
E|2^--|

2.25
     Triplets
e|--|--------|
B|--|--------|
G|--|--------|
D|--|--------|
A|9-|-91211--| x ALOT
E|--|--------|

0.34
e|-----------------|
B|-----------------|
G|-----------------|
D|-----------------|
A|-----------------|
E|2-254-254-254254-|

0.54
e|-----------------|
B|-----------------|
G|-----------------|
D|-----------------|
A|-----------------|
E|2~---------------|

0.58 (4 times)

  A       F#m     C        F#m
e|5-     -2-     -8-      -2-
B|5-     -2-     -8-      -2-
G|6-     -2-     -9-      -2-
D|7- x 4 -4- x 4 -10- x 4 -4- x 4
A|7-     -4-     -10-     -4-
E|5-     -2-     -8-      -2-

1.40
e|-----------------|
B|-----------------|
G|-----------------|
D|-----------------|
A|-----------------|
E|2-254-254-254254-|

1.56
e|-----------------|
B|-----------------|
G|-----------------|
D|-----------------|
A|-----------------|
E|2^---------------|

2.06
e|-----------------|
B|-----------------|
G|-----------------|
D|-----------------|
A|-----------------|
E|2^---------------|

2.10
e|-----------------|
B|-----------------|
G|-----------------|
D|-----------------|
A|-----------------|
E|2-254-254-254254-|


End on
e|--|
B|--|
G|--|
D|--|
A|--|
E|2-|


All My Own Stunts

 Intro/Main riff (Alex)                        Play this a lot.
e|---------------------------------------------------------------------------
B|---------------------------------------------------------------------------
G|-12-12-12-12\11-x-11-11-x-11-11-x-11-11------------------------------------
D|-x--x--x--x--x--x-x--x--x-x--x--x-x--x-------------------------------------
A|-10-10-10-10\9--x-9--9--x-9--9--x-9--9-------------------------------------
E|---------------------------------------------------------------------------

  Jamie plays the same, but one octave lower.
e|---------------------------------------------------------------------------
B|---------------------------------------------------------------------------
G|---------------------------------------------------------------------------
D|-5-5-5-5/4-x-4-4-x-4-4-x-4-4-----------------------------------------------
A|-x-x-x-x-x-x-x-x-x-x-x-x-x-x-----------------------------------------------
E|-3-3-3-3/2-x-2-2-x-2-2-x-2-2-----------------------------------------------


  "For a smoke..."      
e|---------------------------------------------------------------------------
B|-12-12-12-12\11-x-11-11-x-11-11-x-11-11------------------------------------
G|-x--x--x--x-\x--x-x--x--x-x--x--x-x--x-------------------------------------
D|-x--x--x--x-\x--x-x--x--x-x--x--x-x--x-------------------------------------
A|-10-10-10-10\9--x-9--9--x-9--9--x-9--9-------------------------------------
E|---------------------------------------------------------------------------

  Alex goes back to the main riff after "The phone are lining up".
  Then, the chorus starts after "Close but never close enough". First Alex'
  part, then the rest of Jamie's parts.


  Alex
e|---------------------------------------------------------|
B|------------------------------------3---------------5-5--|
G|-11-11---9-7---6-4---1-1-------2-2--4---------------6-6--|
D|-x--x----x-x---x-x---2-2--4----2-2--4----2-2--4-----6-6--|
A|-9--9----7-5---4-2---2-2--4----0-0--2----2-2--4-----4-4--|
E|---------------------0-0--2--------------0-0--2----------|

  Put on your dancing shoes...
e|---------------------------------------------------------|
B|-7--x-7-7--7---------------------------3--x-3-3--3-------|
G|-7--x-7-7--7---1-1----------------2-2--4--x-4-4--4---1-3-|
D|-7--x-7-7--7---2-2--4--x-4-4--4---2-2--4--x-4-4--4---2-5-|
A|-5--x-5-5--5---2-2--4--x-4-4--4---0-0--2--x-2-2--2---2-5-|
E|---------------0-0--2--x-2-2--2----------------------0-3-|

  During Jamie's Solo:
e|---------------------------------------------------------------------------
B|---------------------------------------------------------------------------
G|---------------------------------------------------------------------------
D|---------------------------------------------------------------------------
A|---------------------------------------------------------------------------
E|-2---2-5--0--2---2--0--2-2---2-5--0--2---2-0-3-3-3-------------------------

  He then stops playing, until he sings 'syncing hearts'. These 'chords'
  come back.

e|---------------------------------------------------------------------------
B|-12-12-12-12\11-x-11-11-x-11-11-x-11-11------------------------------------
G|-x--x--x--x-\x--x-x--x--x-x--x--x-x--x-------------------------------------
D|-x--x--x--x-\x--x-x--x--x-x--x--x-x--x-------------------------------------
A|-10-10-10-10\9--x-9--9--x-9--9--x-9--9-------------------------------------
E|---------------------------------------------------------------------------

  Play this four times, then play the intro/mainriff again. After that, they
  play the chorus again.

e|---------------------------------------------------------|
B|------------------------------------3---------------5-5--|
G|-11-11---9-7---6-4---1-1-------2-2--4---------------6-6--|
D|-x--x----x-x---x-x---2-2--4----2-2--4----2-2--4-----6-6--|
A|-9--9----7-5---4-2---2-2--4----0-0--2----2-2--4-----4-4--|
E|---------------------0-0--2--------------0-0--2----------|

  Put on your dancing shoes...
e|---------------------------------------------------------|
B|-7--x-7-7--7---------------------------------------------|
G|-7--x-7-7--7---1-1----------------2-2--4--x-4-4--4---1-3-|
D|-7--x-7-7--7---2-2--4--x-4-4--4---2-2--4--x-4-4--4---2-5-|
A|-5--x-5-5--5---2-2--4--x-4-4--4---0-0--2--x-2-2--2---2-5-|
E|---------------0-0--2--x-2-2--2----------------------0-3-|

e|-----------------------------------|
B|-----------------------------------|
G|-------------3-3-3--x-3-3-3--3-3-4-|
D|-------------4-4-4--x-4-4-4--4-4-5-|
A|-------------4-4-4--x-4-4-4--4-4-5-|
E|-2---2-5--0--2-2-2--x-2-2-2--2-2-3-| Alex' solo now:

  On the background, you here this (repeating):
e|-6~----9---14~--|
B|----------------|
G|----------------|
D|----------------|
A|----------------|
E|----------------|

e|---------------------------------------------------------------------------
B|-7b7.5r7b7.5r7\-----12b13r12b13r12\---5/7/10/12b13r12-10--5/7/10/12b13r12--
G|---------------------------------------------------------------------------
D|---------------------------------------------------------------------------
A|---------------------------------------------------------------------------
E|---------------------------------------------------------------------------

e|---------------------------------------------------------------------------
B|-10~--\-----/19-17b19~---/12-10b12~---/7-5b7~------------/17--/19----------
G|------------------------------------------------/4-2b4~--------------------
D|---------------------------------------------------------------------------
A|---------------------------------------------------------------------------
E|---------------------------------------------------------------------------

e|---------------------------------------------------------------------------
B|-7b7.5r7b7.5r7\------------12b13r12b13r12\---14sb15--17b19r17\14--12--10~--
G|---------------------------------------------------------------------------
D|---------------------------------------------------------------------------
A|---------------------------------------------------------------------------
E|---------------------------------------------------------------------------

e|---------------------------------------------------------------------------
B|-12b13r12~-----------------5/7/10/12b13r12-10--5/7/10/12b13r12-------------
G|---------------------------------------------------------------------------
D|---------------------------------------------------------------------------
A|---------------------------------------------------------------------------
E|---------------------------------------------------------------------------

e|-----------------------------------------|
B|-/19-17b19~---/12-10b12~-----------------|
G|------------------------------/4-2b4~----|
D|-----------------------------------------|
A|-----------------------------------------|
E|-----------------------------------------|




  Jamie
e|----------------7---5---------12-14------------7---5-----------------------
B|------------------7-----------------14-----------7-----------5-7-----------
G|-----------------------------------------------------------------6---------
D|---------------------------------------------------------------------------
A|--------4-5----------------------------------------------------------------
E|-2-2-----------------------------------------------------------------------

e|-7---5----7---5----9---7----12-----12-----12----12-------------------------
B|---7--------7--------9----------14-----14----14------14---12-14-10~--------
G|---------------------------------------------------------------------------
D|---------------------------------------------------------------------------
A|---------------------------------------------------------------------------
E|---------------------------------------------------------------------------


  Solo
e|----------------------------------------------------|
B|----------------------------------------------------|
G|----------------------------------------------------|
D|--------11-9-11-7~----5-5-5-5/7---6h7p6-------------|
A|-3/9~-----------------------------------7/9---------|
E|----------------------------------------------------|

e|------|----|-----------------------------|----|----------------------------
B|------|----|-----------------------------|----|---------------------------|
G|------|----|-----------------------------|----|---------------------------|
D|------|----|-5-5-5-5\4-x-4-4-x-4-4-x-4-4-|----|-5-5-5-5\4-x-4-4-----------|
A|-3/9~-|-x3-|-x-x-x-x-x-x-x-x-x-x-x-x-x-x-|-x7-|-x-x-x-x-x-x-x-x---------4-5
E|------|----|-3-3-3-3\2-x-2-2-x-2-2-x-2-2-|----|-3-3-3-3\3-x-3-3--2-2------|

e|-7---5---------12-14------------7---5-----------------|
B|---7-----------------14-----------7-----------5-7-----|
G|--------------------------------------------------6---|
D|------------------------------------------------------|
A|------------------------------------------------------|
E|------------------------------------------------------|

e|-7---5----7---5----9---7----12-----12-----12-------------------------------
B|---7--------7--------9----------14-----14----14--12-14-10~----------------|
G|---------------------------------------------------------------------------
D|---------------------------------------------------------------------------
A|-----------------------------------------------------------------3/9~------
E|---------------------------------------------------------------------------
                                   G   D   F#
e|-----|-----------------------:---3---2---2---------------------------------
B|-----|-----------------------:---3---3---2---------------------------------
G|-----|-----------------------:---4---2---3---------------------------------
D|-----|--Jamie plays these ---:---5---0---4-----Play this 4 times-----------
A|-13~-|---chords during Alex'-:---5-------4---------------------------------
E|-----|----Solo---------------:---3-------2---------------------------------

  The drum changes, and so does Jamie's guitar part
e|---------------------------------------------------------------------------
B|---------------------------------------------------------------------------
G|---------------------------------------------------------------------------
D|---------------------------------------------------------------------------
A|---------------------------------------------------------------------------
E|-3---3-3--5--10--10---2---2-2-0-------------------------------------------|

  He plays that until the short silence. After that, he plays a lot of F#'s
  (I think just the second fret, lowest string, but maybe octaves again),
  ending with three G notes (third fret, lowest string)

Reckless Serenade

Guitar one is Jamie, Alex is guitar two. I think I made that clear 
  in the tab. He plays the chords, but also plays some sort of solo near the
  end of the song.



  "I've been trying to figure out..."
e|---7---------------3----------------7---------2--3--5~----7----------------
B|-7-----3~---(3)--3------7~---(7)--7---7--5~---3--5--7~------7---5~--5p3----
G|---------------------------------------------------------------------------
D|---------------------------------------------------------------------------
A|---------------------------------------------------------------------------
E|---------------------------------------------------------------------------

e|-7--5~---3--2--3~----------------------------------------------------------
B|-8--7~---5--3--5~----------------------------------------------------------
G|---------------------------------------------------------------------------
D|---------------------------------------------------------------------------
A|---------------------------------------------------------------------------
E|---------------------------------------------------------------------------

  "The type of kisses..."
e|---3--------5----|----|----3--------5---7---5--|
B|-5---5-5/7----7--|-x3-|--5---5-5/7----7---7---7|
G|-----------------|----|------------------------|
D|-----------------|----|------------------------|
A|-----------------|----|------------------------|
E|-----------------|----|------------------------|

e|------5---|----3--------5----|----3--------5---7---5-----------------------
B|-5/7----7-|--5---5-5/7----7--|--5---5-5/7----7---7---7---------------------
G|----------|__________________|---------------------------------------------
D|-------------------x2------------------------------------------------------
A|---------------------------------------------------------------------------
E|---------------------------------------------------------------------------
  Play this last bar three times...
			

  "I've been trying to figure out..."
e|--------3------------7---------2--3--5~----7-------------7--5~--3--2--3~---
B|-3~---3------7~----7---7--5~---3--5--7~------7--5~--5p3--8--7~--5--3--5~---
G|---------------------------------------------------------------------------
D|---------------------------------------------------------------------------
A|---------------------------------------------------------------------------
E|---------------------------------------------------------------------------
  (Second bar is Alex, he starts playing here)
e|-------------------------------------------------------------2-------------
B|-------------3-----------------------------------------------3------------2
G|-4-----------4------------3----------4-----------4-----------2------------2
D|-5-----------4------------4----------5-----------5-----------0--------2---2
A|-5-----------2------------4----------5-----------5--------------------2---0
E|-3------------------------2----------3-----------3--------------------0----



e|---3--------5---|----|---3------------|
B|-5---5-5/7----7-|-x3-|-5---5-6~-------|
G|----------------|----|----------------|
D|--------------------------------------|
A|--------------------------------------|
E|--------------------------------------|

e|-------------------------------------------------|
B|-------------------------------------------------|
G|-4--x-4--4-4---7--x-7--7-7-----------------------|
D|-4--x-4--4-4---7--x-7--7-7---5--x-5--5-5---8~----|
A|-2--x-2--2-2---5--x-5--5-5---5--x-5--5-5---8~----|
E|-----------------------------3--x-3--3-3---6~----|



e|-7-7-7-7-7-7---7--7-7-7-7-7----3-3---5-5---10~-----------------------------
B|-7-7-7-7-7-7---9--9-9-9-9-9----3-3---5-5---10~----------------------------
G|---------------------------------------------------------------------------
D|---------------------------------------------------------------------------
A|---------------------------------------------------------------------------
E|--------------------------------------------------------------------------

e|---------------------------------------------------------------------------
B|-7-7-7-7-7-7-------------------------------7~------------------------------
G|-7-7-7-7-7-7-------------------------------7~------------------------------
D|-7-7-7-7-7-7---6--6-6-6-6-6----5-5---7-7---7~------------------------------
A|-5-5-5-5-5-5---6--6-6-6-6-6----5-5---7-7---5~------------------------------
E|---------------4--4-4-4-4-4----3-3---5-5-----------------------------------


  
e|---------------------------------------------------------------------------
B|---------------------------------------------------------------------------
G|---------------------------------------------------------------------------
D|---------------------------------------------------------------------------
A|---------------------------------------------------------------------------
E|---------------------------------------------------------------------------

e|-2-2-2-2-2---5---7-7---2--2-2----7-7-7-7-7--5--2--2-2-0--2-2---|----|------
B|-3-3-3-3-3---7---8-8---3--3-3----8-8-8-8-8--7--3--3-3-3--3-3---|-x2-|------
G|---------------------------------------------------------------|----|------
D|---------------------------------------------------------------------------
A|---------------------------------------------------------------------------
E|---------------------------------------------------------------------------



e|---------------------------------------------------------------------------
B|---------------------------------------------------------------------------
G|---------------------------------------------------------------------------
D|---------------------------------------------------------------------------
A|---------------------------------------------------------------------------
E|--10---10---2---2--7-7-7---2--2-2----3-3-3-3-3----5----10~-----------------

e|---------9---------5---------9---------5---------9---------5---3-2---0---2-
B|-7/10-12---12p10\7---7/10-12---12p10\7---7/10-12---12p10\7---5-----3---3---
G|---------------------------------------------------------------------------
D|---------------------------------------------------------------------------
A|---------------------------------------------------------------------------
E|---------------------------------------------------------------------------
  
  Play this two times. Alex will sing again from the next part.

e|---------------------------------------------------------------------------
B|---------------------------------------------------------------------------
G|---------------------------------------------------------------------------
D|---------------------------------------------------------------------------
A|---------------------------------------------------------------------------
E|--10---10---2---2--7-7-7---2--2-2----3-3-3-3-3----5----10~-----------------

e|-2---0---2---3----|----|-0---0--------------------12----14----12----9------
B|---3---3---3---3--|-x3-|---7---7-7/10-------12-15----15----15----15---12-10
G|------------------|----|--------------11/14--------------------------------
D|---------------------------------------------------------------------------
A|---------------------------------------------------------------------------
E|---------------------------------------------------------------------------



e|---------------------------------------------------------------------------
B|---------------------------------------------------------------------------
G|---------------------------------------------------------------------------
D|---------------------------------------------------------------------------
A|---------------------------------------------------------------------------
E|--10---10---2---2--7-7-7---2--2-2----0-0-0-0-0-0-0-0-3-3-3-3-3-3-3-3--10~--

e|-7---7---7---7---7---7---7-10---10---10---10-------------------------------
B|---7---7---8---8---8---8------8----8----8----8--7\-------------------------
G|------------------------------------------------7\-------------------------
D|---------------------------------------------------------------------------
A|---------------------------------------------------------------------------
E|---------------------------------------------------------------------------

Piledriver Waltz

Intro:

only the second guitar plays

e|-7-7-7-7-7-7-7-7-7-7-7-7-7-7-7-7---|
B|--9-9-9-9-9-9-9-9-9-9-9-9-9-9-9-9--|
G|-----------------------------------|
D|-----------------------------------| 
A|-----------------------------------|
E|-----------------------------------|

Verse:

Guitar 1 chords:
   E     C#      G#       A
e|-0------4-------4-------5---------|
B|-0------4-------4-------5---------|
G|-1------6-------5-------6---------|
D|-2------6-------6-------7---------|  2x
A|-2------4-------6-------7---------|  
E|-0------4-------4-------5---------|
                                     
Guitar 2:           
                                     
e|-7-7-7-7-9-9-9-9-8-8-8-8-9-9-9-9--|
B|--9-9-9-9-9-9-9-9-9-9-9-9-9-9-9-9-|
G|----------------------------------|
D|----------------------------------|  2x
A|----------------------------------|
E|----------------------------------|

Pre chorus:

Guitar 1 chords:

e|-0----0----0--|
B|-0----0----0--|
G|-1----1----1--|
D|-2----2----2--|
A|-2----2----2--|
E|-0----0----0--|

Guitar 2:

e|-7-7-7-7-7-7-7-|
B|--9-9-9-9-9-9--|
G|---------------|
D|---------------|
A|---------------|
E|---------------|

Chorus:

Both guitars:

e|-5--2--4--4--5--2--4--4--5-2-0-4--5-5--2-2--|
B|-5--2--4--4--5--2--4--4--5-2-0-4--5-5--2-2--|
G|-6--2--6--6--6--2--6--6--6-4-1-5--6-6--4-4--|
D|-7--4--6--6--7--4--6--6--7-4-2-6--7-7--4-4--|
A|-7--4--4--4--7--4--4--4--7-2-2-6--7-7--2-2--|
E|-5--2--4--4--5--2--4--4--5-2-0-4--5-5--2-2--|

Verse

Chorus

End "Oh, Piledriveeer..."

Guitar 1 chords:

e|-0-----4-------4---------------5--(-5-4-2-0-)-|
B|-1-----4-------4---------------5--(-5-4-2-0-)-|
G|-1-----6-------5---------------6--(-6-5-2-1-)-|   
D|-2-----6-------6---------------7--(-7-6-4-2-)-|    3x
A|-2-----4-------6---------------7--(-7-6-4-2-)-|
E|-0-----4-------4---------------5--(-5-4-2-0-)-|

Guitar 2:                              

e|-12-14-11--12---------------------------------------|
B|--------------14-16-14-13-14-16-14--14-12-10-9------|
G|-----------------------------------------------11-9-|
D|----------------------------------------------------|    3x
A|----------------------------------------------------|
E|----------------------------------------------------|

Guitar 1 chords:

e|-0----4------4----------------5\\\--|
B|-0----4------4----------------5\\\--|
G|-1----6------5----------------6\\\--|
D|-2----6------6----------------7\\\--|
A|-2----4------6----------------7\\\--|
E|-0----4------4----------------5\\\--|

Guitar 2:

e|-12-14-11--12---------------------------|
B|--------------14-16-14-13-14-16-14\\\\--|
G|----------------------------------------|
D|----------------------------------------|
A|----------------------------------------|
E|----------------------------------------|

Love is a Lazerquest

Intro/Verse
e|--------------------------------------------------------------------------|
B|--12----12----12----11----9---9---9---9---9---9---9---12----11----11------|
G|-----11----11----11----11---8---8---8---8---9---9---9----11----11----11---|
D|--------------------------------------------------------------------------|
A|--------------------------------------------------------------------------|
E|--------------------------------------------------------------------------|


e|-----------------|
B|--11-----11------|
G|-----11-----11---|X3 (Repeat 3 Times)
D|-----------------|
A|-----------------|
E|-----------------|

Fourth Time
e|--------------------------------------------------------------------------|
B|--12----12----12----11----9---9----9---9---9---9---9---12----11----11-----|
G|-----11----11----11----11---8---8----8---8---9---9---9----11----11-----11-|
D|--------------------------------------------------------------------------|
A|--------------------------------------------------------------------------|
E|--------------------------------------------------------------------------|

e|-----------------------------------------|
B|--11----11----11----11----11----11-------|
G|-----11----11----11----11----11----11----|
D|-----------------------------------------|
A|-----------------------------------------|
E|-----------------------------------------|

Chorus
e|--------------------------------------------------------------------------|
B|--9---9---9---12-----11----11----11-----11----12----12----12----11--------|
G|----9---9---9----11-----11----11----11-----11----11----11----11----11-----|
D|--------------------------------------------------------------------------|
A|--------------------------------------------------------------------------|
E|--------------------------------------------------------------------------|

e|--------------------------------------------------------------------------|
B|--9---9---9---9---9---9---9---12----11----11----9---9---12----12----12----|
G|----9---9---9---9---9---9---9----11----11----11---9---9----11----11----11-|
D|--------------------------------------------------------------------------|
A|--------------------------------------------------------------------------|
E|--------------------------------------------------------------------------|

e|------------------------------------|
B|--12-----12-----12----12-----12-----|
G|-----11-----11-----11----11-----11--|
D|------------------------------------|
A|------------------------------------|
E|------------------------------------|

Second Verse
e|--------------------------------------------------------------------------|
B|--12----12----12----11----9---9---9---9---9---9---9---12----11----11------|
G|-----11----11----11----11---8---8---8---8---9---9---9----11----11----11---|
D|--------------------------------------------------------------------------|
A|--------------------------------------------------------------------------|
E|--------------------------------------------------------------------------|


e|-----------------|
B|--11-----11------|
G|-----11-----11---| (One Time)
D|-----------------|
A|-----------------|
E|-----------------|

Second Time
e|--------------------------------------------------------------------------|
B|--12----12----12----11----9---9----9---9---9---9---9---12----11----11-----|
G|-----11----11----11----11---8---8----8---8---9---9---9----11----11-----11-|
D|--------------------------------------------------------------------------|
A|--------------------------------------------------------------------------|
E|--------------------------------------------------------------------------|

e|-----------------------------------------|
B|--11----11----11----11----11----11-------|
G|-----11----11----11----11----11----11----|
D|-----------------------------------------|
A|-----------------------------------------|
E|-----------------------------------------|

Chorus
e|--------------------------------------------------------------------------|
B|--9---9---9---12-----11----11----11-----11----12----12----12----11--------|
G|----9---9---9----11-----11----11----11-----11----11----11----11----11-----|
D|--------------------------------------------------------------------------|
A|--------------------------------------------------------------------------|
E|--------------------------------------------------------------------------|

e|--------------------------------------------------------------------------|
B|--9---9---9---9---9---9---9---12----11----11----9---9---12----12----12----|
G|----9---9---9---9---9---9---9----11----11----11---9---9----11----11----11-|
D|--------------------------------------------------------------------------|
A|--------------------------------------------------------------------------|
E|--------------------------------------------------------------------------|

e|---------------------------------|
B|--12----12----12----12----12-----|
G|-----11----11----11----11----11--|
D|---------------------------------|
A|---------------------------------|
E|---------------------------------|

Third Verse
e|--------------------------------------------------------------------------|
B|--12----12----12----11----9---9---9---9---9---9---9---12----11----11------|
G|-----11----11----11----11---8---8---8---8---9---9---9----11----11----11---|
D|--------------------------------------------------------------------------|
A|--------------------------------------------------------------------------|
E|--------------------------------------------------------------------------|


e|-----------------|
B|--11-----11------|
G|-----11-----11---| (One Time)
D|-----------------|
A|-----------------|
E|-----------------|

Second Time
e|--------------------------------------------------------------------------|
B|--12----12----12----11----9---9----9---9---9---9---9---12----11----11-----|
G|-----11----11----11----11---8---8----8---8---9---9---9----11----11-----11-|
D|--------------------------------------------------------------------------|
A|--------------------------------------------------------------------------|
E|--------------------------------------------------------------------------|

e|-----------------------------------------|
B|--11----11----11----11----11----11-------|
G|-----11----11----11----11----11----11----|
D|-----------------------------------------|
A|-----------------------------------------|
E|-----------------------------------------|

Outro
e|--------------------------------------------------------------------------|
B|--9---9---9---12-----11----11----11-----11----12----12----12----11--------|
G|----9---9---9----11-----11----11----11-----11----11----11----11----11-----|
D|--------------------------------------------------------------------------|
A|--------------------------------------------------------------------------|
E|--------------------------------------------------------------------------|

e|--------------------------------------------------------------------------|
B|--9---9---9---9---9---9---9---12----11----11----9---9---9----9---9---9----|
G|----9---9---9---9---9---9---9----11----11----11---9---9----8---8---8---8--|
D|--------------------------------------------------------------------------|
A|--------------------------------------------------------------------------|
E|--------------------------------------------------------------------------|

e|--------------------------------------------------------------------------|
B|--9----9----9----9----9---9---9---12----11----11----9---9---12------------|
G|-----8----8----8----8---9---9---9----11----11----11---9---9-11------------|
D|--------------------------------------------------------------------------|
A|--------------------------------------------------------------------------|
E|--------------------------------------------------------------------------|

Suck It And See

Verse
------

     E                              C#m
Your love is like a studded leather headlock
     F#m                              B
Your kiss it could put creases in the rain
       E                                 C#m
You're rarer than a can of dandelion and burdock
          F#m                  B            E       E
And those other girls are just post mix lemonade

Chorus
------

E
Suck it and see
         A   B
You never know
E
Sit next to me
        A   B
Before I go
F#m               B            C#m
Jigsaw women with horror movie shoes
   F#m              A     B        E     E
Be cruel to me, coz I'm a fool for you

Verse
-----

I poured my aching heart into a pop song
I couldn't get the hang of poetry
That's not a skirt girl, that's a sawn off shotgun
And I can only hope, you've got it aimed at me

Chorus
------

E
Suck it and see
          A   B
You never know
E
Sit next to me
         A   B
Before I go
F#m               B            C#m
Jigsaw women with horror movie shoes
   F#m              A     B
Be cruel to me, coz I'm a fool for

C Part
------

C#m   B   C#m   B

A
  Blue
F#m                    C#m
Moon girls from once upon a Shangri-La
G#m         C#m                 B
How I often wonder where you are
A
   You
F#m
have got that face that just says
C#m                             B    A
"Baby, I was made to break your heart"

Interlude
---------

E   A   X4

e-------|------------|---------|-----------|-------|-----------|
B-5-----|------------|---------|-----------|-------|-----------|
G-----4-|2---2-2-4-2-|2-1----1-|2--2-2-4-2-|1----1-|2--2-2-4-2-|
D-------|------------|---------|-----------|-------|-----------|
A-------|------------|---------|-----------|-------|-----------|
E-------|------------|---------|-----------|-------|-----------|

e--------|------------|----------|
B--------|------------|----------|
G-2------|------------|----------|
D---6---6\4---4-4-6-4-|2---------|
A--------|------------|----------|
E--------|------------|----------|

Chorus
------

E       A
Suck it and see
         E   A
You never know
E        A
Sit next to me
        E  A
Before I go
E  A   E  A   E  A   E  A
 go,    go,    go,    go
E                 A            E    A
Jigsaw women with horror movie shoes
   F#m              A     B        E
Be cruel to me, coz I'm a fool for you

That's Where You're Wrong

This is the intro of 'That's Where You're Wrong' and to me it sounds pretty good.

e||---------------------------------------||
B||---------------------------------------||
G||---------------------------------------||
D||---------------------------------------||
A||---11---9---7---9---9---9---5---5------||
E||-0----0---0---0---0---0---7---7--------||

The rest of the song is on E and A

Jamie's part (with a lot reverb)
e||----7------|------9--------|| 
B||----9------|------10-------||
G||----9------|------9--------||
D||-----------|---------------||
A||-----------|---------------||
E||-----------|---------------||

e||----------7-------------------------|| 
B||-9--9--9-----9--7-------------------||
G||-------------------9--9-9-9---------||
D||------------------------------------||
A||------------------------------------||
E||------------------------------------||

e||------------------------------------|| 
B||------------------------------------||
G||----------4-------------------------||
D||-6--6--6-----6--4-------------------||
A||-------------------7--7-7-7---------||
E||------------------------------------||

Solo
e||------------------------------------|| 
B||-12--12--12--9-10-9-----------------||
G||--------------------9--9--9---------||
D||------------------------------------||
A||------------------------------------||
E||------------------------------------||

Sometimes Jamie does a bend on the 5th fret of the G string

And now my favourite B-side, Evil Twin

Main riff (from 0:06):

e|---------------------------------------|
B|---------------------------------------|
G|---------------------------------------|
D|---------------------------------------|
A|---------------------------------------|
E|--2--2--2--2--0--5--0--2--2--2--2--2---|

Chorus (0:50):

e|------------------------------------|
B|------------------------------------|
G|------------------------------------|
D|--12--12--12--12--7--7--7--9--9--9--|
A|--12--12--12--12--7--7--7--9--9--9--|
E|--10--10--10--10--5--5--5--7--7--7--|

e|------------------------------|
B|------------------------------|
G|--14/14--/16b18r--14/12--/16--|
D|------------------------------|
A|------------------------------|
E|------------------------------|

e|---------------------------------|
B|---------------------------------|
G|---------------------------------|
D|--12--9--12--9--12--9--12--9--10-|
A|--12--9--12--9--12--9--12--9--10-|
E|--10--7--10--7--10--7--10--7--8--|

Solo (2:29):

e|---------------------------------|
B|---------------------------------|
G|---------------------------------|
D|--12--9--12--9--12--9--12--9--10-|
A|--12--9--12--9--12--9--12--9--10-|
E|--10--7--10--7--10--7--10--7--8--|

And again thanks to the actual tabbers!
Peace x
Tap to rate this tab
# A B C D E F G H I J K L M N O P Q R S T U V W X Y Z