Song name
# A B C D E F G H I J K L M N O P Q R S T U V W X Y Z

Arctic Monkeys - Do I Wanna Know tab

Intro + Verse 1

e|--------------------------------------------------------|
B|--------------------------------------------------------|
G|--------------------------------------------------------|
D|--------------------------------------------------------|  x5
A|-----1----------1---\8-6--5-3--1-3-5-3--1^3-3\5-3\5-----|
E|-1-3---3----1-3-------------------------------------3---|

e|-----------------------------------------------------|
B|-----------------------------------------------------|
G|-----------------------------------------------------|
D|-----------------------------------------------------|  x1
A|-----1----------1---\8-6--5-3--1-3-5-3---5-----------|
E|-1-3---3----1-3--------------------------------------|

Pre-Chorus

e|------------------------------------------|
B|------------------------------------------|
G|------------------------------------------|
D|------------------------------------------|   1x
A|-\10-6--3^5^6-5-3--1^3--1^3^5-------1-----|
E|-----------------------------3--1-3----3--|

e|---------------------------------------|
B|---------------------------------------|
G|---------------------------------------|
D|---------------------------------------|   1x
A|-\10-6--3^5^6-5-3--1^3-----------------|
E|--------------------------3-----3------|

Chorus

e|--------------------------------------------------------|
B|--------------------------------------------------------|
G|--------------------------------------------------------|
D|--------------------------------------------------------|  x2
A|-----1-----------1--\8-6--5-3--1-3-5-3--1^3-3\5-3\5-----|
E|-1-3----3----1-3------------------------------------3---|

Verse 2

e|--------------------------------------------------|
B|--------------------------------------------------|
G|--------------------------------------------------|
D|--------------------------------------------------|  x1
A|-----------1--\8-6--5-3--1-3-5-3--1^3-3\5-3\5-----|
E|--3----1-3------------------------------------3---|

e|-----------------------------------------------------|
B|-----------------------------------------------------|
G|-----------------------------------------------------|
D|-----------------------------------------------------|  x1
A|-----1-----------1--\8-6--5-3--1-3-5-3---5-----------|
E|-1-3----3----1-3-------------------------------------|

Pre-Chorus

e|------------------------------------------|
B|------------------------------------------|
G|------------------------------------------|
D|------------------------------------------|   2x
A|-\10-6--3^5^6-5-3--1^3--1^3^5-------1-----|
E|-----------------------------3--1-3----3--|

Chorus+Bridge

e|--------------------------------------------------------|
B|--------------------------------------------------------|
G|--------------------------------------------------------|
D|--------------------------------------------------------|  x2
A|-----1----------1---\8-6--5-3--1-3-5-3--1^3-3\5-3\5-----|
E|-1-3---3----1-3-------------------------------------3---|

e|------------------------------------------|
B|------------------------------------------|
G|------------------------------------------|
D|------------------------------------------|   3x
A|-\10-6--3^5^6-5-3--1^3--1^3^5-------1-----|
E|-----------------------------3--1-3----3--|

e|-----------------------|    |--------------|           |---|
B|-----------------------|    |--------------|           |---|
G|-----------------------|    |--------------|           |---|
D|-----------------------| 1x |--------------| 2x End On |---|
A|-\10-6--3^5^6-5-3--1^3-|    |------------1-|           |---|
E|-----------------------|    |---3----1-3---|           |-3-|


Made by: sasukegonzalez
Tap to rate this tab
 
# A B C D E F G H I J K L M N O P Q R S T U V W X Y Z