Song name
# A B C D E F G H I J K L M N O P Q R S T U V W X Y Z

Arctic Monkeys - Knee Socks tab

-------------------------------------------------------------------------------
                             KNEE SOCKS - Arctic Monkeys
-------------------------------------------------------------------------------
Tabbed by: Tom Hill
E-mail: tom-hill95@hotmail.co.uk

Tuning: Standard

Main riff

e|---------------------------------------------------------------------------|
B|----------------------12-----------------------12--------------------------|
G|----------12--12/14----------------12--12/14-------------------------------|
D|--12/14---------------------12/14------------------------------------------|
A|---------------------------------------------------------------------------|
E|---------------------------------------------------------------------------|

e|---------------------------------------------------------------------------|
B|-------------------12------------------------------------------------------|
G|----------12-----------------------12--14--12------------------------------|
D|--12/14-------12-----------12/14-------------------------------------------|
A|---------------------------------------------------------------------------|
E|---------------------------------------------------------------------------|

e|---------------------------------------------------------------------------|
B|-------------------12-----------------------12-----------------------------|
G|----------12-----------------------12--------------------------------------|
D|--12/14-------10-----------12/14-------10----------------------------------|
A|---------------------------------------------------------------------------|
E|---------------------------------------------------------------------------|

e|---------------------------------------------------------------------------|
B|---------------------------------------------------------------------------|
G|----------12--------------11--12--11---------------------------------------|
D|--12/14-------9--12--14----------------------------------------------------|
A|---------------------------------------------------------------------------|
E|---------------------------------------------------------------------------|

REPEAT WITH VARIATIONS:

e|---------------------------------------------------------------------------|
B|----------------------12-----------------------12--------------------------|
G|----------12--12/14----------------12--12/14-------------------------------|
D|--12/14---------------------12/14------------------------------------------|
A|---------------------------------------------------------------------------|
E|---------------------------------------------------------------------------|

e|---------------------------------------------------------------------------|
B|-------------------12------------------------------------------------------|
G|----------12-----------------------12--14--12------------------------------|
D|--12/14-------12-----------12/14-------------------------------------------|
A|---------------------------------------------------------------------------|
E|---------------------------------------------------------------------------|

e|---------------------------------------------------------------------------|
B|------------------------------------12-------------------------------------|
G|----------12---------------12--14-------14--12-----------------------------|
D|--12/14-------10--(12)/14------------------------14------------------------|
A|---------------------------------------------------------------------------|
E|---------------------------------------------------------------------------|

                                 P.M----|         ~~~~
e|-----------------------------------------------12--------------------------|
B|-----------------------------------------------12--------------------------|
G|--------------11--12--11--9--11----------------12--------------------------|
D|--9--12--14----------------------10-10---------14--------------------------|
A|-----------------------------------------------14--------------------------|
E|-----------------------------------------------12--------------------------|


************************************

| /   slide up
| \   slide down
| h   hammer-on
| p   pull-off
| ~   vibrato
| +   harmonic
| x   Mute note
| b   Bend
| pb  Pre-bend
| br  Bend release
| pbr Pre-bend release
| brb Bend release bend

************************************
Tap to rate this tab
# A B C D E F G H I J K L M N O P Q R S T U V W X Y Z