Song name
# A B C D E F G H I J K L M N O P Q R S T U V W X Y Z

Arctic Monkeys - I Wanna Be Yours tab

-----------------------------------------------------------------------------
               I WANNA BE YOURS - ARCTIC MONKEYS
-----------------------------------------------------------------------------
Tabbed by: Nano511
E-mail: enano896@hotmail.com

=Rhythm Guitar===============================================================

Intro/Verse
Cm Fm Gm

Pre-Chorus
Fm Gm Cm Fm | Fm Gm Cm A#

Chorus
G# Cm A#

Post-Chorus Transition Chord
Gm



=BASS========================================================================
Intro and Verses( 0:00 - 0:46)
e|---------------------------|
B|---------------------------|
G|---------------------------|
D|---------------------------|
A|-3-----3---------8-----10--|
E|-----3---------------8-----|

Transition From Verse into Prechorus note
e|---|
B|---|
G|---|
D|-8-|
A|---|
E|---|


Prechorus
e|-----------------------------|---------------------------|
B|-----------------------------|---------------------------|
G|-----------------------------|---------------------------|
D|-------3---------------------|-------3-------------------|
A|----/3-----------------------|----/3---------------------|
E|-1--------3-3---8-8--3-1-1---|-1--------3-3---8-8--6-6---|

Chorus
e|--------------------------|
B|--------------------------|
G|--------------------------|
D|-------6------------------|
A|----/6--------------------|
E|-4----------8---3-6--1----|

e|--------------|
B|--------------|
G|--------------|
D|--------6-5---|
A|-----/6-------|
E|--4-----------|
Tap to rate this tab
# A B C D E F G H I J K L M N O P Q R S T U V W X Y Z