Song name
# A B C D E F G H I J K L M N O P Q R S T U V W X Y Z

Arctic Monkeys - Riot Van tab

Part 1

|--2--4--2-----------|--2--4--2-----------|--2--4--2-----------|--2--4--2-----------|
|--2--5--3-----------|--2--5--3-----------|--2--5--3-----------|--2--5--3-----------|
|--2--4--2-----------|--2--4--2-----------|--2--4--2-----------|--2--4--2-----------|
|-----6--4-----------|-----6--4-----------|-----6--4-----------|-----6--4-----------|
|-----4--2-----------|-----4--2-----------|-----4--2-----------|-----4--2-----------|
|--------------------|--------------------|--------------------|--------------------|


Part 2

|--------------------|--------------------|--------------------|--------------------|
|--2-----------------|--5-----------------|--4-----------------|--0--0--0--2--2--2--|
|--2-----------------|--4-----------------|--2-----------------|--1--1--1--1--1--1--|
|--2-----------------|--6-----------------|--3-----------------|--2--2--2--2--2--2--| x2
|--0-----------------|--4-----------------|--2-----------------|--2--2--2--2--2--2--|
|--------------------|--------------------|--------------------|--0--0--0--0--0--0--|
Just keep strumming softly, the last one's a bit off, but you'll get it..

Part 1

Part 2

Part 1

Solo

|--------------------|--------------------|--------------------|--------------------|
|--------------------|--------------------|--------------------|--------------------|
|--------------------|--------------------|--------------------|--------------------|
|--------------------|--------------------|--------------------|--------------------|
|--0-------------9\--|--4-------------14\-|--9-------------9---|--7 ----------------|
|--------------------|--------------------|--------------------|--------------------|

|--------------------|--------------------|--------------------|--------------------|
|--------------------|--------------------|--------------------|--------------------|
|--------------------|--------------------|--------------------|--------------------|
|--------------------|--------------------|--------------------|--------------------|
|--0-------------9\--|--4-------------9---|--/16-----------14--|--/19----------(12)-|
|--------------------|--------------------|--------------------|--------------------|

Part 1
Tap to rate this tab
# A B C D E F G H I J K L M N O P Q R S T U V W X Y Z