Song name
# A B C D E F G H I J K L M N O P Q R S T U V W X Y Z

Arctic Monkeys - One For The Road tab

Intro

Palm Muted and played TWICE

e|------------7---8---10---8---7------|
B|---8---10------------------------10-|
G|-9---9----9---9---9----9---9---9----|
D|------------------------------------|
A|------------------------------------|
E|------------------------------------|

e|------------------------------------|
B|------------------------------------|
G|------------------------------------|
D|------------------------------------|
A|----3-2-3-2-3-2---------------------|
E|----------------5-3-----------------|

Verse (Chords)

e|------------------------------------|
B|------------------------------------|
G|-------4--5--2----------------------|
D|----2--4--5--2----------------------|
A|----2--2--3--0----------------------|
E|----0-------------------------------|

Verse (Riff)

Played on bass but can be played on the guitar

e|------------------------------------|
B|------------------------------------|
G|------------------------------------|
D|------------------------------------|
A|------------------------------------|
E|---0-3-5-7---8-3-7-5----------------|

1st Chorus (carry on playing the verse)


Play Verse again but there is this played on top of the chords

e|------------------------------------|
B|----12--11--12--11--12--11--12--11--|
G|--12--12--12--12--12--12--12--12----|
D|------------------------------------|
A|------------------------------------|
E|------------------------------------|


2nd Chorus

e|-----------------------------------------------------------------|
B|-----------------------------------------------------------------|
G|---5---------------5---------------5---------------5-------4-----|
D|---5-------2-------5-------2-------5-------2-------5-------4-----|
A|---3-------2-------3-------2-------3-------2-------3-------2-----|
E|-----------0---------------0---------------0---------------------|

After chorus repeat the in intro Twice

e|------------7---8---10---8---7------|
B|---8---10------------------------10-|
G|-9---9----9---9---9----9---9---9----|
D|------------------------------------|
A|------------------------------------|
E|------------------------------------|

Then play this twice

e|------------------------------------|
B|------------------------------------|
G|--9-11-12/19-17-16-14-12------------|
D|------------------------------------|
A|------------------------------------|
E|------------------------------------|

Solo

e|-------------------------------------------|
B|-------------------------------------------|
G|--14^-----------11-11-11----------------12-| Repeat Twice
D|------14--12h14---------12/14---9-12-14----|
A|-------------------------------------------|
E|-------------------------------------------|

e|-------------------------------------------------------------------------|
B|--14^-14---19-16---19^-19-16-14---9-12-14-12-14-12-9-12-14-12-9-12-14-16-|
G|-------------------------------------------------------------------------|
D|-------------------------------------------------------------------------|
A|-------------------------------------------------------------------------|
E|-------------------------------------------------------------------------|

e|------------------------------------|
B|----------------19^-17--------------|
G|--19-19^-19-19^--------14-12-9------|
D|------------------------------------|
A|------------------------------------|
E|------------------------------------|

Final Chorus

e|-----------------------------------------------------------------|
B|-----------------------------------------------------------------|
G|---5---------------5---------------5---------------5-------4-----|
D|---5-------2-------5-------2-------5-------2-------5-------4-----|
A|---3-------2-------3-------2-------3-------2-------3-------2-----|
E|-----------0---------------0---------------0---------------------|

this is played on top of the chords in the chorus

e|------------------------------------|
B|------------------------------------|
G|--9-11-12/19-17-16-14-12------------|
D|------------------------------------|
A|------------------------------------|
E|------------------------------------|


^ bends
/ slide up
h hammer on

Thank hope it works !!
Tap to rate this tab
# A B C D E F G H I J K L M N O P Q R S T U V W X Y Z