Song name
# A B C D E F G H I J K L M N O P Q R S T U V W X Y Z

Arctic Monkeys - Fake Tales Of San Fransisco tab

This is how I play this song with my band.The bass line is the same as Guitar 1 in the verses. 

VERSE
1st Guitar does this five times- 
e|--------------------------------------------------------|
B|--------------------------------------------------------|
G|--------------------------------------------------------| 
D|-------------------------------------------------7------|
A|-----5---5-7-5----5---5-7-5----5---5-7-5---5-7-9---7-5--|     
E|---7---7--------7---7--------7---7-------7--------------|

Second guitar does this once- 
e|---7--7---5-----7--7---5-----7--7---5-----7--7---5------|
B|---7--7---5-----7--7---5-----7--7---5-----7--7---5------|

CHORUS
(By Bass. No guitars in chorus.)
E|--------------|
B|--------------|
G|--------------|
D|--------------|
A|--------0--2--|
E|--0--2--------|

SECOND VERSE

1st Guitar does this four times- 
e|--------------------------------------------------------|
B|--------------------------------------------------------|
G|--------------------------------------------------------| 
D|-------------------------------------------------7------|
A|-----5---5-7-5----5---5-7-5----5---5-7-5---5-7-9---7-5--|     
E|---7---7--------7---7--------7---7-------7--------------|

2nd guitar does this four times- 
e|---7--7---5-----7--7---5-----7--7---5-----7--7---------|
B|---7--7---5-----7--7---5-----7--7---5-----7--7---------|

BRIDGE PART ONE 

Guitar 1 (x2)
e|----------------------------------------------------------------|
B|----------------------------------------------------------------|
G|--------------------------------9999999999999999----------------|
D|9999999999999999555555555555555599999999999999999999999999------|
A|9999999999999999555555555555555577777777777777779999999999-----7|
E|77777777777777773333333333333333----------------7777777777-7-10-|

Guitar 2 (x2)
e|------------------------------------------------------------------------|
B|------------------------------------------------------------------------|
G|------------------------------------999999999999999999------------------|
D|999999999999999999555555555555555555999999999999999999999999999999------|
A|999999999999999999555555555555555555777777777777777777999999999999--789-|
E|777777777777777777333333333333333333------------------777777777777------|

BRIDGE PART TWO  (x2)
Both Guitars

e|----------------------------------------------------------------|
B|----------------------------------------------------------------|
G|----------------------------------------------------------------|
D|99999999999995555555555555222222222222555555555555--------------|
A|99999999999995555555555555222222222222555555555555--------------|
E|77777777777773333333333333000000000000333333333333--------------|

Outro

Guitar 1
e|---7--7---5-----7--7---5-----7--7---5-----7--7---5------|
B|---7--7---5-----7--7---5-----7--7---5-----7--7---5------|
G|--------------------------------------------------------|
D|--------------------------------------------------------|
A|--------------------------------------------------------|
E|--------------------------------------------------------|

e|---7--7---5-----7--7---5-----7--7---5-----7--7---5-7\--|
B|---7--7---5-----7--7---5-----7--7---5-----7--7---5-7\--|
G|-------------------------------------------------------|
D|-------------------------------------------------------|
A|-------------------------------------------------------|
E|-------------------------------------------------------|

Guitar 2

e|-----------------------------7--7---5-----7--7---5------|
B|-----------------------------7--7---5-----7--7---5------|
G|--------------------------------------------------------|
D|--------------------------------------------------------|
A|--------------------------------------------------------|
E|--------------------------------------------------------|

e|---7--7---5-----7--7---5-----7--7---5-----7--7---5-7\--|
B|---7--7---5-----7--7---5-----7--7---5-----7--7---5-7\--|
G|-------------------------------------------------------|
D|-------------------------------------------------------|
A|-------------------------------------------------------|
E|-------------------------------------------------------|
Tap to rate this tab
# A B C D E F G H I J K L M N O P Q R S T U V W X Y Z