Song name
# A B C D E F G H I J K L M N O P Q R S T U V W X Y Z

Arctic Monkeys - Stop The World I Wanna Get Off With You tab

e|-----------------------------------------------------------------------|
B|-----------------------------------------------------------------------|
G|-----------------------------------------------------------------------|
D|-9--------14b15p11-9---------9-9----9-9----9--11/14-9/12----9----------|
A|---12-9--------------12---12-----12-----12---------------12---9-12-----|
E|-----------------------------------------------------------------------|

e|-----------------------------------------------------------------------|
B|-----------------------------------------------------------------------|
G|-----------------------------------------------------------------------|
D|-9-11-14-16-11--9-------9------11---14----11-16--19b21b///b19-16-14-11-|
A|------------------12-12---12-9----9----12------------------------------|
E|-----------------------------------------------------------------------|


There might be minor mistakes; it's my first tab. Anyways, enjoy!
Tap to rate this tab
 
# A B C D E F G H I J K L M N O P Q R S T U V W X Y Z