Song name
# A B C D E F G H I J K L M N O P Q R S T U V W X Y Z

Arctic Monkeys - Love Is A Laserquest tab

I love this song, and when I first went to learn it I had noticed a few issues
with the other tabs, with various missing/incorrect pieces I set out to correct.
So, without further ado, here is my (complete) version of Love Is A Laserquest.



The guitar comes in with the vocals:
"Do you still feel younger than..."
e------------------------------------------------------------------------------------|
B--12----12----12----11----9---9---9---9---9---9---9---12---11----11----11----11-----|
G-----11----11----11----11---8---8---8---8---9---9---9----9----11----11----11----11--|
D------------------------------------------------------------------------------------|    X4
A------------------------------------------------------------------------------------|
E------------------------------------------------------------------------------------|

After the fourth time, continue playing this:
e--------------------------|
B--11----11----11----11----|
G-----11----11----11----11-|
D--------------------------|
A--------------------------|
E--------------------------|

"Do you look into the mirror..."
e-----------------------------------------------------------------------------------|
B--9---9---9---12---11----11----11----11----12----12----12----11----9---9---9---9---|
G----9---9---9----9----11----11----11----11----11----11----11----11---9---9---9---9-|
D-----------------------------------------------------------------------------------|
A-----------------------------------------------------------------------------------|
E-----------------------------------------------------------------------------------|

e---------------------------------------------------------------------------------------|
B--9---9---9---12---11----11----9---9---12----12----12----12----12----12----12----12----|
G----9---9---9----9----11----11---9---9----11----11----11----11----11----11----11----11-|
D---------------------------------------------------------------------------------------|
A---------------------------------------------------------------------------------------|
E---------------------------------------------------------------------------------------|

"Now I can't think of there..."
e------------------------------------------------------------------------------------|
B--12----12----12----11----9---9---9---9---9---9---9---12---11----11----11----11-----|
G-----11----11----11----11---8---8---8---8---9---9---9----9----11----11----11----11--|
D------------------------------------------------------------------------------------|    X2
A------------------------------------------------------------------------------------|
E------------------------------------------------------------------------------------|

Last time
e--------------------------|
B--11----11----11----11----|
G-----11----11----11----11-|
D--------------------------|
A--------------------------|
E--------------------------|

"When I'm hanging on..."
e-----------------------------------------------------------------------------------|
B--9---9---9---12---11----11----11----11----12----12----12----11----9---9---9---9---|
G----9---9---9----9----11----11----11----11----11----11----11----11---9---9---9---9-|
D-----------------------------------------------------------------------------------|
A-----------------------------------------------------------------------------------|
E-----------------------------------------------------------------------------------|

e---------------------------------------|
B--9---9---9---12---11----11----9---9---|
G----9---9---9----9----11----11---9---9-|
D---------------------------------------|
A---------------------------------------|
E---------------------------------------|

The other guitar goes straight into the main part again during the solo:
e------------------------------------------------------------------------------------|
B--12----12----12----11----9---9---9---9---9---9---9---12---11----11----11----11-----|
G-----11----11----11----11---8---8---8---8---9---9---9----9----11----11----11----11--|
D------------------------------------------------------------------------------------|    X2
A------------------------------------------------------------------------------------|
E------------------------------------------------------------------------------------|

Again with this the last time
e--------------------------|
B--11----11----11----11----|
G-----11----11----11----11-|
D--------------------------|
A--------------------------|
E--------------------------|

Solo:
e--7/11--14--11--16--14--11--7--11--7--12--11--9-----9--7--11--9-----------|
B-------------------------------------------------9---------------9h11--7--|
G--------------------------------------------------------------------------|
D--------------------------------------------------------------------------| X2
A--------------------------------------------------------------------------|
E--------------------------------------------------------------------------|

"When I'm pipe and slippers..."
e-----------------------------------------------------------------------------------|
B--9---9---9---12---11----11----11----11----12----12----12----11----9---9---9---9---|
G----9---9---9----9----11----11----11----11----11----11----11----11---9---9---9---9-|
D-----------------------------------------------------------------------------------|
A-----------------------------------------------------------------------------------|
E-----------------------------------------------------------------------------------|

e-----------------------------------------------------------------------|
B--9---9---9---12---11----11----9---9---9---9---9---9---9---9---9---9---|
G----9---9---9----9----11----11---9---9---8---8---8---8---8---8---8---8-|
D-----------------------------------------------------------------------|
A-----------------------------------------------------------------------|
E-----------------------------------------------------------------------|

e--------------------------------------------|
B--9---9---9---12---11----11----9---9----12~-|
G----9---9---9----9----11----11---9---9--11~-|
D--------------------------------------------|
A--------------------------------------------|
E--------------------------------------------|

And there you have it! Enjoy and feel free to add corrections!
Tap to rate this tab
# A B C D E F G H I J K L M N O P Q R S T U V W X Y Z