Song name
# A B C D E F G H I J K L M N O P Q R S T U V W X Y Z

Arctic Monkeys - One For The Road tab

Based on live performances.

e|----------------------------------------------------|
B|-10b12----------------------------------------------|
G|-------9~--7h9b11-11-11b9p7-7/9--4/7/9/12-/14b16-9~-|
D|----------------------------------------------------|
A|----------------------------------------------------|
E|----------------------------------------------------|


e|----------------------------------------------|
B|----------------------------------------------|
G|-7h9b11-11-11b9p7-7/9--4/7/9-/12-/14-/16-/14~-|
D|----------------------------------------------|
A|----------------------------------------------|
E|----------------------------------------------|


e|------------------------------------------------------------|
B|-/15-12~--/17-15--------------------------------------------|
G|-----------------16-14-14~-------12-14-12h14p12----12h14p12-|
D|-----------------------------/14----------------14----------|
A|------------------------------------------------------------|
E|------------------------------------------------------------|

e|----------------------15b-12--5b-3-0-|
B|----------15/17-15/17----------------|
G|-12h14/16----------------------------|
D|-------------------------------------|
A|-------------------------------------|
E|-------------------------------------|
Tap to rate this tab
 
# A B C D E F G H I J K L M N O P Q R S T U V W X Y Z