Song name
# A B C D E F G H I J K L M N O P Q R S T U V W X Y Z

Arctic Monkeys - Snap Out Of It tab

-----------------------------------------------------------------------------
                             SNAP OUT OF IT - Arctic Monkeys
-----------------------------------------------------------------------------
Tabbed by:maxibbo
E-mail:ibbodubai@gmail.com

Tuning:Standard

This is my first ever tab so any ratings, comments or improvements would be appreciated. 
I decided to tab Jamie's part because it's simple and I haven't seen one around yet.

Chorus - 0:33

e|----9----------------8--------11------------------------------------------|
B|----9----------------9--------13----------13b---11b---9b---8b-------------|
G|----10---------------10-------13---(x3)-----------------------------------|
D|--------------------------------------------------------------------------|
A|--------------------------------------------------------------------------|
E|--------------------------------------------------------------------------|


2nd Verse - 1:10

e|-----8---------------------------------8----------------------------------|
B|-----9---------------------------------9----------------------------------|
G|-----10--------------------------------10---------------------------------|
D|--------------------------------------------------------------------------|
A|--------------------------------------------------------------------------|
E|--------------------------------------------------------------------------|

1:25

e|--------------------------------------------------------------------------|
B|----11----10----9----8--x3-------11----10\5-------------------------------|
G|--------------------------------------------------------------------------|
D|--------------------------------------------------------------------------|
A|--------------------------------------------------------------------------|
E|--------------------------------------------------------------------------|

Repeat Chorus - 1:40

Break - 2:24

e|--------------------------------------------------------------------------|
B|----8---9---11---13-----------------9-------------------------------------|
G|--------------------13--11--8--11-------(x2)------------------------------|
D|--------------------------------------------------------------------------|
A|--------------------------------------------------------------------------|
E|--------------------------------------------------------------------------|

Outro - 2:39

e|----15-----16-----18-----20---16---13------13-----------------------------|
B|---------------------------------------16-------16---14---13--------------|
G|---------------------------------------------------------------15----(x3)-|
D|--------------------------------------------------------------------------|
A|--------------------------------------------------------------------------|
E|--------------------------------------------------------------------------|

e|--------------------------------------------------------------------------|
B|----13b---11b---9b---8b---------------------------------------------------|
G|--------------------------------------------------------------------------|
D|--------------------------------------------------------------------------|
A|--------------------------------------------------------------------------|
E|--------------------------------------------------------------------------|

                                      END

Thanks for reading and please rate or comment.

************************************

| /   slide up
| \   slide down
| h   hammer-on
| p   pull-off
| ~   vibrato
| +   harmonic
| x   Mute note
| b   Bend
| pb  Pre-bend
| br  Bend release
| pbr Pre-bend release
| brb Bend release bend

************************************
Tap to rate this tab
# A B C D E F G H I J K L M N O P Q R S T U V W X Y Z